Log in

One click and you are in

Login with Facebook Login with Google

Why sign up and log in

Guitar Tabs Explorer
Fats Domino bass tabs for Blueberry hill

Bass tabs with lyrics

Fats_Domino/Blueberry_Hill.btab

Basstab by Jan Bjorklund, Finland;
jani_bjorklund@yahoo.se
You are welcome to request for basstabs or standard notation!
Bienvenidos a pedirme transcripciones para el bajo!
TablEdited by Jan Bjorklund for Gerardo

Tuning : E A D G 	Time Signature: 4/4 (with a triplet feel)

 tempo 93|    |    |    |    |    |    |
|--------------------------------|------------1---4---4---1---4---|
|--------------------------------|2-------------------------------|
|--------------------------------|--------------------------------|
|--------------------------------|--------------------------------|

 |    |    |    |    |    |    |    |
|------------1---4---4---1---4---|--------------------------------|
|2-------2-----------------------|------------1---4---4---1h2h4---|
|--------------------------------|2-------2-----------------------|
|--------------------------------|--------------------------------|

 |    I found my   |    thrill |    |    |
|--------------------------------|------------1---4---4---1---4---|
|--------------------------------|2-------------------------------|
|2-------------------------------|--------------------------------|
|--------------------------------|--------------------------------|

 on Blueberry  |    |    Hill  |    |    |
|------------1---4---4---1---4---|--------------------------------|
|2-------------------------------|------------1---4---4---1h2h4---|
|--------------------------------|2-------2-----------------------|
|--------------------------------|--------------------------------|

 |    on Blueberry  |    Hill  |    |    |
|--------------------------------|------------3---6---6---3---6---|
|------------1---4---4---1---4---|4-------4-----------------------|
|2-------2-----------------------|--------------------------------|
|--------------------------------|--------------------------------|

 when I found  |    |    you   |    |    |
|------------3---6---6---3---6---|--------------------------------|
|4-------4-----------------------|------------1---4---4---1---4---|
|--------------------------------|2-------2-----------------------|
|--------------------------------|--------------------------------|

 The moon|stood |    |    still  |    |    |
|--------------------------------|------------1---4---4---1---4---|
|------------1---4---4---1-------|2-------2-----------------------|
|2-------2-----------------------|--------------------------------|
|--------------------------------|--------------------------------|

 on Blueberry  |    |    Hill  |    |    |
|------------1---4---4---1---4---|--------------------------------|
|2-------2-----------------------|------------1---4---4---1h2h4---|
|--------------------------------|2-------2-----------------------|
|--------------------------------|--------------------------------|

 and lingered un-|    |    til   |    |    |
|--------------------------------|------------3---6---6---3---6---|
|------------1---4---4---1---4---|4-------4-----------------------|
|2-------2-----------------------|--------------------------------|
|--------------------------------|--------------------------------|

 my dream|came  |    |    true  |    |    |
|------------3---6-------3-------|------------------------1-------|
|4-------4-----------------------|------------1---4---------------|
|--------------------------------|2-------2-----------------------|
|--------------------------------|--------------------------------|

 The wind|in the |    |    willow played  |    |
|4-------4-------2-------2-------|4-------4-----------------------|
|--------------------------------|----------------4-------4-------|
|--------------------------------|--------------------------------|
|--------------------------------|--------------------------------|

 love's sweet melo-   |    dy   |    |    |
|--------------------------------|--------------------------------|
|--------------------------------|4-------4-----------------------|
|2-------2-------4-------4-------|----------------2-------2-------|
|--------------------------------|--------------------------------|

 But all of those|    |    vows you|made  |    |
|----------------------------1---|3-------3-----------------------|
|4-------------------------------|----------------3-------3-------|
|--------1-------1-------1-------|--------------------------------|
|--------------------------------|--------------------------------|

 all never to  |    |    be   |    |    |
|3-------3-------------------1---|3-------3-------3-------3---1---|
|----------------3-------3-------|--------------------------------|
|--------------------------------|--------------------------------|
|--------------------------------|--------------------------------|

 Though we're a- |    |    part  |    |    |
|--------------------------------|------------1---4---4---1---4---|
|4-----------------------1-------|2-------2-----------------------|
|----------------2---------------|--------------------------------|
|--------2---2-------------------|--------------------------------|

 you're part of me    |    still  |    |    |
|------------1---4---4---1---4---|--------------------------------|
|2-------2-----------------------|------------1---4---4---1h2h4---|
|--------------------------------|2-------2-----------------------|
|--------------------------------|--------------------------------|

 For you were my |    |    thrill |    |    |
|--------------------------------|------------3---6---6---3h4h6---|
|------------1---4---4---1---4---|4-------4-----------------------|
|2-------2-----------------------|--------------------------------|
|--------------------------------|--------------------------------|

 on Blueberry  |    |    Hill  |    |    |
|------------3---6---6---3---6---|------------------------1-------|
|4-------4-----------------------|------------1---4---------------|
|--------------------------------|2-------2-----------------------|
|--------------------------------|--------------------------------|

 The wind|in the |    |    willow played  |    |
|4-------4-----------------------|--------------------------------|
|----------------4-------4-------|----------------4-------4-------|
|--------------------------------|2-------2-----------------------|
|--------------------------------|--------------------------------|

 love's sweet melo-   |    dy   |    |    |
|--------------------------------|--------------------------------|
|--------------------------------|4-------4-------4-------4-------|
|2-------2-------4-------4-------|--------------------------------|
|--------------------------------|--------------------------------|

 But all of those|    |    vows you|made  |    |
|----------------------------1---|3-------3-----------------------|
|--------------------------------|----------------3-------3-------|
|2-------2-------1-------1-------|--------------------------------|
|--------------------------------|--------------------------------|

 were only to  |    |    be   |    |    |
|3-------3-------------------1---|3-------3-------3-------3---1---|
|----------------3-------3-------|--------------------------------|
|--------------------------------|--------------------------------|
|--------------------------------|--------------------------------|

 Though we're a- |    |    part  |    |    |
|--------------------------------|------------1---4---4---1---4---|
|4-------4---------------1---1---|2-------2-----------------------|
|----------------2---------------|--------------------------------|
|--------------------------------|--------------------------------|

 you're part of me    |    still  |    |    |
|------------1---4---4---1-------|--------------------------------|
|2-------2-------------------1---|------------1---4---4---1h2h4---|
|--------------------------------|2-------2-----------------------|
|--------------------------------|--------------------------------|

 For you were my |    |    thrill |    |    |
|--------------------------------|------------3---6---6---3---6---|
|------------1---4---4---1---4---|4-------4-----------------------|
|2-------2-----------------------|--------------------------------|
|--------------------------------|--------------------------------|

 on Blueberry  |    |    Hill  |    |    |
|------------3---6---6---3---6---|--------------------------------|
|4-------4-----------------------|------------1---4---4---1---4---|
|--------------------------------|2-------2-----------------------|
|--------------------------------|--------------------------------|

 |    |    |    |
|--------------------------------|
|--------------------------------|
|2-------------------------------|
|--------------------------------|


http://www.geocities.com/jani_bjorklund/janis.html 1058405404377

ⓘ Bass guitar tab for 'Blueberry Hill' by Fats Domino, artist.

Almost there ...

Sign in to get your own page with links to favourite songs and more. You are just one click away...

Login with Facebook Login with Google