Log in

One click and you are in

Login with Facebook Login with Google

Why sign up and log in

Guitar Tabs Explorer
Dominic Fike bass tabs for Westcoast collective

Westcoast Collective bass tab by Dominic Fike

Dominic Fike bass tabs for Westcoast collective

Bass tabs

Tuning: Standard (E A D G)


Verse:
G|-----------------------------------------13--------------------------------|
D|---------------------------------------------11----------------------------|
A|-7-7-7-7---11-11-11-11---12-12-12-12-------------12-11---------------------|
E|---------------------------------------------------------------------------|

G|-----------------------------------------13--------------------------------|
D|---------------------------------------------11----------------------------|
A|-7-7-7-7---11-11-11-11---12-12-12-12-------------12-11---------------------|
E|---------------------------------------------------------------------------|
Chorus:
G|-----------------------------------------13--------------------------------|
D|---------------------------------------------11----------------------------|
A|-7-7-7-7---11-11-11-11---12-12-12-12-------------12-11---------------------|
E|---------------------------------------------------------------------------|

G|-----------------------------------------13--------------------------------|
D|---------------------------------------------11----------------------------|
A|-7-7-7-7---11-11-11-11---12-12-12-12-------------12-11---------------------|
E|---------------------------------------------------------------------------|


*No bass for post-chorus


Verse:
G|-----------------------------------------13--------------------------------|
D|---------------------------------------------11----------------------------|
A|-7-7-7-7---11-11-11-11---12-12-12-12-------------12-11---------------------|
E|---------------------------------------------------------------------------|

G|-----------------------------------------13--------------------------------|
D|---------------------------------------------11----------------------------|
A|-7-7-7-7---11-11-11-11---12-12-12-12-------------12-11---------------------|
E|---------------------------------------------------------------------------|


Chorus:
G|-----------------------------------------13--------------------------------|
D|---------------------------------------------11----------------------------|
A|-7-7-7-7---11-11-11-11---12-12-12-12-------------12-11---------------------|
E|---------------------------------------------------------------------------|

G|-----------------------------------------13--------------------------------|
D|---------------------------------------------11----------------------------|
A|-7-7-7-7---11-11-11-11---12-12-12-12-------------12-11---------------------|
E|---------------------------------------------------------------------------|

Almost there ...

Sign in to get your own page with links to favourite songs and more. You are just one click away...

Login with Facebook Login with Google