Log in

One click and you are in

Login with Facebook Login with Google

Why sign up and log in

Guitar Tabs Explorer
Doja Cat tabs for Woman

Guitar tabs

A chord diagramE MajorE |-------|--------------3--3--1--1----|--------------3--3--1--1----|
A chord diagramBB |-------|--1--1----------------------|--3--3----------------------|
A chord diagramG+G |-------|----------------------------|----------------------------|
A chord diagramD MajorD |-------|----------------------------|----------------------------|
A chord diagramA augmentedA |-------|----------------------------|----------------------------|
A chord diagramE MajorE |-------|----------------------------|----------------------------|

A chord diagramE MajorE |--------------3--3--1--1----|----------------------------|
A chord diagramBB |--1--1----------------------|--3--3--------3--3--4--3----|
A chord diagramG+G |----------------------------|----------------------------|
A chord diagramD MajorD |----------------------------|----------------------------|
A chord diagramA augmentedA |----------------------------|----------------------------|
A chord diagramE MajorE |----------------------------|----------------------------|


A chord diagramE MajorE |--------------3--3--1--1----|--------------3--3--1--1----|
A chord diagramBB |--1--1----------------------|--3--3----------------------|
A chord diagramG+G |----------------------------|----------------------------|
A chord diagramD MajorD |----------------------------|----------------------------|
A chord diagramA augmentedA |----------------------------|----------------------------|
A chord diagramE MajorE |----------------------------|----------------------------|


A chord diagramE MajorE |--------------3--3--1--1----|----------------------------|
A chord diagramBB |--1--1----------------------|--3--3--------3--3--4--3----|
A chord diagramG+G |----------------------------|----------------------------|
A chord diagramD MajorD |----------------------------|----------------------------|
A chord diagramA augmentedA |----------------------------|----------------------------|
A chord diagramE MajorE |----------------------------|----------------------------|

A chord diagramE MajorE |----------------------------|--------------1-------------|
A chord diagramBB |--1--------1--1L------------|--1-----3--3-----4--3--1----|
A chord diagramG+G |-----0--0-------------------|----------------------------|
A chord diagramD MajorD |----------------------------|----------------------------|
A chord diagramA augmentedA |----------------------------|----------------------------|
A chord diagramE MajorE |----------------------------|----------------------------|

A chord diagramE MajorE |----------------------------|
A chord diagramBB |-----------1--1L------------|
A chord diagramG+G |--0--0--0-------------------|
A chord diagramD MajorD |----------------------------|
A chord diagramA augmentedA |----------------------------|
A chord diagramE MajorE |----------------------------|


A chord diagramE MajorE |--------------------------1-------------------------|
A chord diagramBB |--1-----------3-----3--------------3--3-----1-------|
A chord diagramG+G |----------------------------------------------------|
A chord diagramD MajorD |----------------------------------------------------|
A chord diagramA augmentedA |----------------------------------------------------|
A chord diagramE MajorE |----------------------------------------------------|


----------------------------------------------------|
--------------------1-----1-----3--1----------------|
--0-----0-----0-----------------------3-------------|
----------------------------------------------------|
----------------------------------------------------|
----------------------------------------------------|


--------------1-------------|
--------3--3-----4--3--1----|
----------------------------|
----------------------------|
----------------------------|
----------------------------|


----------------------------------------------------|
--------------------3-----1L----------------1-------|
--0-----0-----0--------------------------------3----|
----------------------------------------------------|
----------------------------------------------------|
----------------------------------------------------|


----------------------------|
-----------4--3-------------|
--0--0----------------------|
----------------------------|
----------------------------|
----------------------------|


--------------------------1--3-----1--3L-3----------|
--1-----------------------------------------4-------|
----------------------------------------------------|
----------------------------------------------------|
----------------------------------------------------|
----------------------------------------------------|


--------------------------1--3-----1--3L-3----------|
--3-----------------------------------------4-------|
----------------------------------------------------|
----------------------------------------------------|
----------------------------------------------------|
----------------------------------------------------|


--------------------------1--3L-3--1--3-------------|
--3-----1-----------------------------------4L-4----|
--------------3-----3-------------------------------|
----------------------------------------------------|
----------------------------------------------------|
----------------------------------------------------|


--------------------------1--3-----1--3L-3----------|
--3-----------1-----------------------------3-------|
--------------------3-------------------------------|
----------------------------------------------------|
----------------------------------------------------|
----------------------------------------------------|


--------------------------1--3-----1--3L-3----------|
--1-----------------------------------------4-------|
--------------3-----3-------------------------------|
----------------------------------------------------|
----------------------------------------------------|
----------------------------------------------------|


--------------------------1--3-----1--3L-3----------|
--3-----------------------------------------4-------|
----------------------------------------------------|
----------------------------------------------------|
----------------------------------------------------|
----------------------------------------------------|


--------------------------1--3L-3--1--3-------------|
--3-----1-----------------------------------4L-4----|
--------------3-----3-------------------------------|
----------------------------------------------------|
----------------------------------------------------|
----------------------------------------------------|


--------------1-------------|--------------3--3--1--1----|
--3--------------4--3--3----|--1--1----------------------|
--------3-------------------|----------------------------|
----------------------------|----------------------------|
----------------------------|----------------------------|
----------------------------|----------------------------|


--------------3--3--1--1----|--------------3--3--1--1----|
--3--3----------------------|--1--1----------------------|
----------------------------|----------------------------|
----------------------------|----------------------------|
----------------------------|----------------------------|
----------------------------|----------------------------|


----------------------------|--------------3--3--1--1----|
--3--3--------3--3--4--3----|--1--1----------------------|
----------------------------|----------------------------|
----------------------------|----------------------------|
----------------------------|----------------------------|
----------------------------|----------------------------|


--------------3--3--1--1----|--------------3--3--1--1----|
--3--3----------------------|--1--1----------------------|
----------------------------|----------------------------|
----------------------------|----------------------------|
----------------------------|----------------------------|
----------------------------|----------------------------|


----------------------------|----------------------------|-------|
--3--3--------3--3--4--3----|--1--1L-1L-------1----------|-------|
----------------------------|----------------------------|-------|
----------------------------|----------------------------|-------|
----------------------------|----------------------------|-------|
----------------------------|----------------------------|-------|


--------------3--3--1--1----|--------------3--3--1--1----|
--1--1----------------------|--3--3----------------------|
----------------------------|----------------------------|
----------------------------|----------------------------|
----------------------------|----------------------------|
----------------------------|----------------------------|


--------------3--3--1--1----|----------------------------|
--1--1----------------------|--3--3--------3--3--4--3----|
----------------------------|----------------------------|
----------------------------|----------------------------|
----------------------------|----------------------------|
----------------------------|----------------------------|


--------------3--3--1--1----|--------------3--3--1--1----|
--1--1----------------------|--3--3----------------------|
----------------------------|----------------------------|
----------------------------|----------------------------|
----------------------------|----------------------------|
----------------------------|----------------------------|


--------------3--3--1--1----|----------------------------|
--1--1----------------------|--3--3--------3--3--4--3----|
----------------------------|----------------------------|
----------------------------|----------------------------|
----------------------------|----------------------------|
----------------------------|----------------------------|


----------------------------|--------------1-------------|
--1--------1--1L------------|--1-----3--3-----4--3--1----|
-----0--0-------------------|----------------------------|
----------------------------|----------------------------|
----------------------------|----------------------------|
----------------------------|----------------------------|


----------------------------|
-----------1--1L------------|
--0--0--0-------------------|
----------------------------|
----------------------------|
----------------------------|


--------------------------1-------------------------|
--1-----------3-----3--------------3--3-----1-------|
----------------------------------------------------|
----------------------------------------------------|
----------------------------------------------------|
----------------------------------------------------|


----------------------------------------------------|
--------------------1-----1-----3--1----------------|
--0-----0-----0-----------------------3-------------|
----------------------------------------------------|
----------------------------------------------------|
----------------------------------------------------|


--------------1-------------|
--------3--3-----4--3--1----|
----------------------------|
----------------------------|
----------------------------|
----------------------------|


----------------------------------------------------|
--------------------3-----1L----------------1-------|
--0-----0-----0--------------------------------3----|
----------------------------------------------------|
----------------------------------------------------|
----------------------------------------------------|


----------------------------|
-----------4--3-------------|
--0--0----------------------|
----------------------------|
----------------------------|
----------------------------|


--------------------------1--3-----1--3L-3----------|
--1L----------1-----------------------------4-------|
----------------------------------------------------|
----------------------------------------------------|
----------------------------------------------------|
----------------------------------------------------|


--------------------------1--3-----1--3L-3----------|
--3-----------------------------------------4-------|
----------------------------------------------------|
----------------------------------------------------|
----------------------------------------------------|
----------------------------------------------------|


--------------------------1--3L-3--1--3-------------|
--3-----1-----------------------------------4L-4----|
--------------3-----3-------------------------------|
----------------------------------------------------|
----------------------------------------------------|
----------------------------------------------------|


--------------------------1--3-----1--3L-3----------|
--3-----------1-----------------------------3-------|
--------------------3-------------------------------|
----------------------------------------------------|
----------------------------------------------------|
----------------------------------------------------|


--------------------------1--3-----1--3L-3----------|
--1-----------------------------------------4-------|
--------------3-----3-------------------------------|
----------------------------------------------------|
----------------------------------------------------|
----------------------------------------------------|


--------------------------1--3-----1--3L-3----------|
--3-----------------------------------------4-------|
----------------------------------------------------|
----------------------------------------------------|
----------------------------------------------------|
----------------------------------------------------|


--------------------------1--3L-3--1--3-------------|
--3-----1-----------------------------------4L-4----|
--------------3-----3-------------------------------|
----------------------------------------------------|
----------------------------------------------------|
----------------------------------------------------|


--------------1-------------|--------------3--3--1--1----|
--3--------------4--3--3----|--1--1----------------------|
--------3-------------------|----------------------------|
----------------------------|----------------------------|
----------------------------|----------------------------|
----------------------------|----------------------------|


--------------3--3--1--1----|--------------3--3--1--1----|
--3--3----------------------|--1--1----------------------|
----------------------------|----------------------------|
----------------------------|----------------------------|
----------------------------|----------------------------|
----------------------------|----------------------------|


----------------------------|--------------3--3--1--1----|
--3--3--------3--3--4--3----|--1--1----------------------|
----------------------------|----------------------------|
----------------------------|----------------------------|
----------------------------|----------------------------|
----------------------------|----------------------------|


--------------3--3--1--1----|--------------3--3--1--1----|
--3--3----------------------|--1--1----------------------|
----------------------------|----------------------------|
----------------------------|----------------------------|
----------------------------|----------------------------|
----------------------------|----------------------------|


----------------------------|
--3--3--------3--3--4--3----|
----------------------------|
----------------------------|
----------------------------|
----------------------------|



----------------------------------------------------||
--1-----1L----1L----------------1L----1-------------||
----------------------------------------------------||
----------------------------------------------------||
----------------------------------------------------||
----------------------------------------------------||


🏷Legend
L - tied note
x - dead note
h - hammer on/pull off
b - bend
s - slide
~ - vibrato
g - ghost note
> - accentuated note
t - trill
M - palm mute
. - staccato
P - popping (bass)
S - slapping (bass)
+ - tapping
W - wide vibrato
< - fade in
w - whammy bar
= - tremolo picking
v - brush up
^ - brush down
V - pick stroke up
n - pick stroke down
ⓘ Guitar tab for 'Woman' by Doja Cat, a female r&b artist from Calabasas, CA, USA. Doja Cat was born in 1996.

Other versions of Woman

WomanChords
Woman (Ver. 2)Chords

Almost there ...

Sign in to get your own page with links to favourite songs and more. You are just one click away...

Login with Facebook Login with Google