Log in

One click and you are in

Login with Facebook Login with Google

Why sign up and log in

Guitar Tabs Explorer
Doja Cat guitar tabs for Say so

Guitar tabs

Tuning: Standard (E A D G B E)

Say So (Doja Cat - Hot Pink)


Main Riff:

        A chord diagramE minor 7Em7                 A chord diagramA11A11              A chord diagramDmaj7Dmaj7
e|-7--7--7----x--x-x-|---5--5-x-5---x-|-5--5--5----x--x-x-|---5--5-x-5---x-|
B|-8--8--8----x--x-x-|---8--8-x-8---x-|-7--7--7----x--x-x-|---7--7-x-7---x-|
G|-7--7--7----x--x-x-|---7--7-x-7---x-|-6--6--6----x--x-x-|---6--6-x-6---x-|
D|-9--9--9----x--x-x-|---7--7-x-7---x-|-7--7--7----x--x-x-|---7--7-x-7---x-|
A|-------------------|----------------|-------------------|----------------|
E|-------------------|----------------|-------------------|----------------|


        A chord diagramE minor 7Em7                 A chord diagramA11A11              A chord diagramDmaj7Dmaj7           A chord diagramB7sus4B7sus4 - A chord diagramB7B7
e|-7--7--7----x--x-x-|---5--5-x-5---x-|-5--5--5----x--x-x-|---7--7-x-5---x-|
B|-8--8--8----x--x-x-|---8--8-x-8---x-|-7--7--7----x--x-x-|---7--7-x-7---x-|
G|-7--7--7----x--x-x-|---7--7-x-7---x-|-6--6--6----x--x-x-|---9--9-x-8---x-|
D|-9--9--9----x--x-x-|---7--7-x-7---x-|-7--7--7----x--x-x-|---7--7-x-7---x-|
A|-------------------|----------------|-------------------|----------------|
E|-------------------|----------------|-------------------|----------------|


************************************

| x  Dead note

************************************

Other versions of Say So

Say soChords
Say so (Ver. 2)Chords
Say so (Ver. 3)Chords
Say so (Ver. 4)Chords
Say so remixChords

↓ Add and view comments below ↓

What do you think about this song and these tabs?

Add your comments, questions, rant or a thumbs up below.

Almost there ...

Sign in to get your own page with links to favourite songs and more. You are just one click away...

Login with Facebook Login with Google