Log in

One click and you are in

Login with Facebook Login with Google

Why sign up and log in

Guitar Tabs Explorer
Doja Cat bass tabs for Kiss me more

Bass tabs

Tuning: Standard (E A D G)

The Rhythm Is a Little tricky, But once you get the groove, You got it!
🎸 Intro:

G|----------------------------------|
D|----------------------------------|
A|---6------4----4----3-------------|
E|-6----4---------------------------|


G|----------------------------------|
D|----------------------------------|
A|-----6--------4-----4------3------|
E|--6-------4-----------------------|


🎸 Verse 1: Repeat This For The Entire Song

G|------------------------------------|
D|------------------------------------|
A|----------6--6-------4--4----3------|
E|---6---8--------4--4----------------|

Almost there ...

Sign in to get your own page with links to favourite songs and more. You are just one click away...

Login with Facebook Login with Google