Log in

One click and you are in

Login with Facebook Login with Google

Why sign up and log in

Guitar Tabs Explorer
Dogleg bass tabs for Remember alderaan

Bass tabs

Tuning: Standard (E A D G)


Chorus:

G|---------------------------------------------------------------------------|
D|---------------------------------------------------------------------------|
A|----------------------------------4-4-4-4--3-3-4-3--4-4-4-4--3-3-4-3-------|
E|1-1-1-1-1-1-1-1--4-4-4-4-4-4-4-4-------------------------------------------| x 11
End of chorus, before bridge:

G|---------------------------------------------------------------------------|
D|---------------------------------------------------------------------------|
A|----------------------------------4-4-4-4--3-3-4-3--4-4-4-4--3-3-4---------|
E|1-1-1-1-1-1-1-1--4-4-4-4-4-4-4-4-----------------------------------1-------| x 1


Bridge:

G|---------------------------------------------------------------------------|
D|---------------------------------------------------------------------------|
A|4-4-4-4-4-4--3-3---------------3-3---------------3-3---------------3-3-----|
E|------------------4-4-4-4-4-4-------1-1-1-1-1-1-------4-4-4-4-4-4----------| x 4


Chorus:

G|---------------------------------------------------------------------------|
D|---------------------------------------------------------------------------|
A|----------------------------------4-4-4-4--3-3-4-3--4-4-4-4--3-3-4-3-------|
E|1-1-1-1-1-1-1-1--4-4-4-4-4-4-4-4-------------------------------------------| x 3


End of chorus:

G|---------------------------------------------------------------------------|
D|---------------------------------------------------------------------------|
A|----------------------------------4-4-4-4--3-3-4-3--4-4-4-4--3-3-4---------|
E|1-1-1-1-1-1-1-1--4-4-4-4-4-4-4-4-----------------------------------1-------| x 1

************************************

Almost there ...

Sign in to get your own page with links to favourite songs and more. You are just one click away...

Login with Facebook Login with Google