Log in

One click and you are in

Login with Facebook Login with Google

Why sign up and log in

Guitar Tabs Explorer
Dogleg bass tabs for Kawasaki backflip

Bass tabs

Tuning: Standard (E A D G)



Intro: (0:16)

G|-----------------|-----------------|-----------------|-----------------|
D|-----------------|-----------------|-----------------|-----------------|
A|-4---4-4---4-4---|-4-4---4-4-4-4-0-|-4---4-4---4-4---|-4-4---4-4-4-4-0-|
E|-----------------|-----------------|-----------------|-----------------|

G|-----------------|-----------------|-----------------|-----------------|
D|-----------------|-----------------|-----------------|-----------------|
A|-----------------|-----------------|-----------------|-----------------|
E|-4---4-4---4-4---|-4-4---4-4-4-4-0-|-4---4-4---4-4---|-4-4---4-4-4-4-4-|

G|-----------------|-----------------|-----------------|-----------------|
D|-----------------|-----------------|-----------------|-----------------|
A|-4---4-------x-4-|---4-4-----------|-4---4-------x-4-|---4-4-----------|
E|-----------------|-----------------|-----------------|-----------------|

G|-----------------|-----------------|-----------------|-----------------|-----------------|
D|-----------------|-----------------|-----------------|-----------------|-----------------|
A|-----------------|-----------------|-----------------|-----------------|-4---------------|
E|-4---4-------x-4-|---4-4-----------|-4---4-------x-4-|---4-4-4---4-4-4-|-----------------|


Verse 1: (0:40, "tear down my walls, we don't need them now...")

G|-----------------|-----------------|-----------------|-----------------|
D|-----------------|-----------------|-----------------|-----------------|
A|-----------------|-----------------|-----------------|-----------------|
E|-4---4---4-4-4-4-|---4-4---4-4-4-4-|-4---4---4-4-4-4-|---4-0-4---4-4-0-|

G|-----------------|-----------------|-----------------|-----------------|
D|-----------------|-----------------|-----------------|-----------------|
A|-4---4---4-4-4-4-|---4-4---4-4-4-4-|-4---4---4-4-0-4-|---4-0-4---0-4-4-|
E|-----------------|-----------------|-----------------|-----------------|

G|-----------------|-----------------|-----------------|-----------------|
D|-----------------|-----------------|-----------------|-----------------|
A|-----------------|-----------------|-----------------|-----------------|
E|-4---4---4-4-4-4-|---4-4---4-4-4-4-|-4---4---4-4-4-4-|---4-4-0-4-4-4-4-|

G|-----------------|-----------------|-----------------|-----------------|
D|-----------------|-----------------|-----------------|-----------------|
A|-4---4---4-4-4-4-|---4-4---4-4-4-4-|-4---4---4-4-0-4-|---4-0-4---0-4-4-|
E|-----------------|-----------------|-----------------|-----------------|

G|-----------------|-----------------|-----------------|-----------------|
D|-----------------|-----------------|-----------------|-----------------|
A|-----------------|-----------------|-----------------|-----------------|
E|-4---4---4-4-4-4-|---4-4---4-4-4-4-|-4---4---4-4-0-4-|---4-4-0-4-4-4-4-|


Pre-chorus: (1:05, "we can destroy this together...")

G|-----------------|-----------------|-----------------|-----------------|
D|-----------------|-----------------|-----------------|-----------------|
A|-----------------|-----------------|-4-4-4-4-4-4-4-4-|-4-4-4-4-4-4-4-4-|
E|-6---6-6-6-6-6-6-|-6-6-6-6-6-6-6-6-|-----------------|-----------------|

G|-----------------|-----------------|-----------------|-----------------|
D|-----------------|-----------------|-----------------|-----------------|
A|-----------------|-----------------|-6-6-6-6-6-6-6-6-|-6-6-6-6-6-6-6-6-|
E|-4-4-4-4-4-4-4-4-|-4-4-4-4-4-4-4-4-|-----------------|-----------------|


Chorus: (1:15, "will you be the fire or the wind ")

G|-----------------|-----------------|-----------------|-----------------|
D|-----------------|-----------------|-----------------|-----------------|
A|-----------------|-----------------|-4---4---4-4-4-4-|---4-4---4-4-4-4-|
E|-6---6---6-6-6-6-|---6-6---6-6-6-6-|-----------------|-----------------|

G|-----------------|-----------------|-----------------|-----------------|
D|-----------------|-----------------|-----------------|-----------------|
A|-----------------|-----------------|-6---6---6-6-6-6-|---6-6---6-6-6-6-|
E|-4---4---4-4-4-4-|---4-4---4-4-4-4-|-----------------|-----------------|

G|-----------------|-----------------|-----------------|-----------------|
D|-----------------|-----------------|-----------------|-----------------|
A|-4---4---4---0-4-|---4-4---4---4-0-|-4---4---4---0-4-|---4-4---4---4-0-|
E|-----------------|-----------------|-----------------|-----------------|

G|-----------------|-----------------|-----------------|-----------------|
D|-----------------|-----------------|-----------------|-----------------|
A|-----------------|-----------------|-----------------|-----------------|
E|-4---4---4---0-4-|---4-4---4---4-0-|-4---4---4---0-4-|---4-4---4-4-4-0-|

G|-----------------|-----------------|-----------------|-----------------|
D|-----------------|-----------------|-----------------|-----------------|
A|-4---4-------x-4-|---4-4-----------|-4---4-------x-4-|---4-4-----------|
E|-----------------|-----------------|-----------------|-----------------|

G|-----------------|-----------------|-----------------|-----------------|
D|-----------------|-----------------|-----------------|-----------------|
A|-----------------|-----------------|-----------------|-----------------|
E|-4---4-------x-4-|---4-4-----------|-4---4-------x-4-|---4-0-4---4-4-4-|

G|-----------------|-----------------|
D|-----------------|-----------------|
A|-4---------------|-4---------------|
E|-----------------|-----------------|


Verse 2: (1:49, "tear down my walls, we don't need them now...")

G|-----------------|-----------------|-----------------|-----------------|
D|-----------------|-----------------|-----------------|-----------------|
A|-----------------|-4-4-4-4-4-4-4-4-|-----------------|-6-6-6-6-6-6-6-6-| x2
E|-6-6-6-6-6-6-6-6-|-----------------|-4-4-4-4-4-4-4-4-|-----------------|

G|-----------------|-----------------|-----------------|-----------------|
D|-----------------|-----------------|-----------------|-----------------|
A|-----------------|-----------------|-4-4-4-4-4-4-4-4-|-4-4-4-4-4-4-4-4-|
E|-6-6-6-6-6-6-6-6-|-6-6-6-6-6-6-6-6-|-----------------|-----------------|

G|-----------------|-----------------|-----------------|-----------------|
D|-----------------|-----------------|-----------------|-----------------|
A|-----------------|-----------------|-6-6-6-6-6-6-6-6-|-4---4---4--4----|
E|-4-4-4-4-4-4-4-4-|-4-4-4-4-4-4-4-4-|-----------------|-----------------|
                            (follow vocals here)


Chorus: (2:09, "will you be the fire or the wind ")

G|-----------------|-----------------|-----------------|-----------------|
D|-----------------|-----------------|-----------------|-----------------|
A|-4---4-4-4---0-4-|---4-4---4-4-4-0-|-4---4-4-4---0-4-|---4-4---4-4-4-0-|
E|-----------------|-----------------|-----------------|-----------------|

G|-----------------|-----------------|-----------------|-----------------|
D|-----------------|-----------------|-----------------|-----------------|
A|-----------------|-----------------|-----------------|-----------------|
E|-4---4-4-4---0-4-|---4-4---4-4-4-0-|-4---4-4-4---0-4-|---4-4---4-4-4-4-|


G|-----------------|-----------------|-----------------|-----------------|
D|-----------------|-----------------|-----------------|-----------------|
A|-4-4-4-4-4-4-4-4-|-4-4-4-4-4-4-4-4-|-4-4-4-4-4-4-4-4-|-4-4-4-4-4-4-4-4-|
E|-----------------|-----------------|-----------------|-----------------|

G|-----------------|-----------------|-----------------|-----------------|
D|-----------------|-----------------|-----------------|-----------------|
A|-----------------|-----------------|-----------------|-----------------|
E|-4-4-4-4-4-4-4-4-|-4-4-4-4-4-4-4-4-|-4-4-4-4-4-4-4-4-|-4---------------|


************************************

| x  Dead note

************************************

Almost there ...

Sign in to get your own page with links to favourite songs and more. You are just one click away...

Login with Facebook Login with Google