Log in

One click and you are in

Login with Facebook Login with Google

Why sign up and log in

Guitar Tabs Explorer
Dogleg bass tabs for Fox

Bass tabs

Tuning: Standard (E A D G)


Intro:

G|-----------------------------------------------------------------------------------|
D|-----------------------------------------------------------------------------------|
A|-----------------------------------------------------------------------------------|
E|--8-8-8-8-8-8-8-8-8-8-8-8-8-8-8-8-10-10-10-10-10-10-10-10-10-10-10-10-10-10-10-10--|
G|-----------------------------------------------------------------------------------|
D|-----------------------------------------------------------------------------------|
A|--7-7-7-7-7-7-7-7-7-7-7-7-7-7-7-7-10-10-10-10-10-10-10-10-10-10-10-10-10-10-10-10--|
E|-----------------------------------------------------------------------------------|

G|-----------------------------------------------------------------------------------|
D|-----------------------------------------------------------------------------------|
A|-----------------------------------------------------------------------------------|
E|--8-8-8-8-8-8-8-8-8-8-8-8-8-8-8-8-10-10-10-10-10-10-10-10-10-10-10-10-10-10-10-10--|

G|---------------------------------------------------------------------------------|
D|-------------------------------------------------------12-12-12-10-10-9-9--------|
A|--7-7-7-7-7-7-7-7-7-7-7-7-7-7-7-7-10-10-10-10-10-10-10--------------------12-12--|
E|---------------------------------------------------------------------------------|


Verse 1:

G|-----------------------------------------------------------------------|
D|-----------------------------------------------------------------------|
A|-----------------------------------------------------------------------|
E|--8~----5~----3~----7~----8~----5~----3-3-3-3-3-3-3-3-3-3-3-3-3-3-3-3--|

G|-------------------------------------------------------------------|
D|-------------------------------------------------------------------|
A|--3-3-3-3-3-3-3-3-3-3-3-3-3-3-3-3----------------------------------| x4
E|----------------------------------3-3-3-3-3-3-3-3-3-3-3-3-3-3-3-3--|


Chorus:

G|-----------------------------------------------------------------------------------|
D|-----------------------------------------------------------------------------------|
A|-----------------------------------------------------------------------------------|
E|--8-8-8-8-8-8-8-8-8-8-8-8-8-8-8-8-10-10-10-10-10-10-10-10-10-10-10-10-10-10-10-10--|

G|---------------------------------------------------------------------------------|
D|-------------------------------------------------------12-12-12-10-10-9-9--------|
A|--7-7-7-7-7-7-7-7-7-7-7-7-7-7-7-7-10-10-10-10-10-10-10--------------------12-12--| x2
E|---------------------------------------------------------------------------------|


Post-Chorus:

G|----------------------------------------------------------------------------------------------------------|
D|----------------------------------------------------------------------------------------------------------|
A|--9-9-9-9-9-9-9-9-9-9-9-9-9----9-9-9-9-9-9-9-9-9-9-9-9-9------9-9-9-9-9-9-9----9-9-9-9-9-9-9-9-9-9-9-9-9--|
E|----------------------------------------------------------------------------------------------------------|


Verse 2:

G|-------------------------------------------------------------------|
D|-------------------------------------------------------------------|
A|--3-3-3-3-3-3-3-3-3-3-3-3-3-3-3-3----------------------------------| x5
E|----------------------------------3-3-3-3-3-3-3-3-3-3-3-3-3-3-3-3--|


Bridge:

G|-----------------------------|
D|-----------------------------|
A|-----------------7~-----10~--| x2
E|--8~-----10~-----------------|

G|-----------------------------------------------------------------------------------|
D|-----------------------------------------------------------------------------------|
A|-----------------------------------------------------------------------------------|
E|--8-8-8-8-8-8-8-8-8-8-8-8-8-8-8-8-10-10-10-10-10-10-10-10-10-10-10-10-10-10-10-10--|

G|-----------------------------------------------------------------------------------|
D|-----------------------------------------------------------------------------------|
A|--7-7-7-7-7-7-7-7-7-7-7-7-7-7-7-7-10-10-10-10-10-10-10-10-10-10-10-10-10-10-10-10--|
E|-----------------------------------------------------------------------------------|

G|-----------------------------------------------------------------------------------|
D|-----------------------------------------------------------------------------------|
A|-----------------------------------------------------------------------------------|
E|--8-8-8-8-8-8-8-8-8-8-8-8-8-8-8-8-10-10-10-10-10-10-10-10-10-10-10-10-10-10-10-10--|

G|---------------------------------------------------------------------------------|
D|-------------------------------------------------------12-12-12-10-10-9-9--------|
A|--7-7-7-7-7-7-7-7-7-7-7-7-7-7-7-7-10-10-10-10-10-10-10--------------------12-12--|
E|---------------------------------------------------------------------------------|


Chorus:

G|-----------------------------------------------------------------------------------|
D|-----------------------------------------------------------------------------------|
A|-----------------------------------------------------------------------------------|
E|--8-8-8-8-8-8-8-8-8-8-8-8-8-8-8-8-10-10-10-10-10-10-10-10-10-10-10-10-10-10-10-10--|

G|---------------------------------------------------------------------------------|
D|-------------------------------------------------------12-12-12-10-10-9-9--------|
A|--7-7-7-7-7-7-7-7-7-7-7-7-7-7-7-7-10-10-10-10-10-10-10--------------------12-12--| x2
E|---------------------------------------------------------------------------------|

G|------|
D|------|
A|------|
E|--8~--|

Almost there ...

Sign in to get your own page with links to favourite songs and more. You are just one click away...

Login with Facebook Login with Google