Log in

One click and you are in

Login with Facebook Login with Google

Why sign up and log in

Guitar Tabs Explorer
Dog Is Dead guitar tabs for Glockenspiel song

Guitar tabs with lyrics

Difficulty: Novice

---------------------------------
-DOG IS DEAD - Glockenspiel Song-
---------------------------------
Tuning: Standard


Intro x2

A chord diagramE MajorE|-------------------------------------------------|
H|-------9---12-9----------------9---12-9----------|
A chord diagramG+G|-----9---9------11-11-9------9---9------11-11-9--|
A chord diagramD MajorD|--11----------------------11---------------------|
a|-------------------------------------------------|
e|-------------------------------------------------|

A chord diagramE MajorE|-------------------------------------------------|
H|------9---12-9-------9-------9---12-9-------9----|
A chord diagramG+G|----9---9------11-11-------9---9------11-11------|
A chord diagramD MajorD|--9----------------------9-----------------------|
a|-------------------------------------------------|
e|-------------------------------------------------|


Verse (Not quite sure if it is correct, sorry. :/ )

A chord diagramE MajorE|-----------------------------------------------------------------------|
H|------------------------------------------9------9-9------9-----9-9-9--|
A chord diagramG+G|------------------------------------------9------9-9------9-----9-9-9--|
A chord diagramD MajorD|------------------------------------------9------9-9------9-----9-9-9--|
a|--7-7-7-7-6-6-6-6-9-9-9-9-11-11-11-11---7----7-7------7-7---7-7--------|
e|-----------------------------------------------------------------------|

We'll     all      start      a           fire

A chord diagramE MajorE|-------------------------------------------------------------------|
  H|--------------------------------------9------9-9------9-----9-9-9--|
  A chord diagramG+G|--------------------------------------9------9-9------9-----9-9-9--|
  A chord diagramD MajorD|--------------------------------------9------9-9------9-----9-9-9--|
  a|--6-6-6-6-4-4-4-4-2-2-2-2-0-0-0-0---7----7-7------7-7---7-7--------|
  e|-------------------------------------------------------------------|

If the bells   don't   ring in our home town

A chord diagramE MajorE|-----------------------------------------------------------------------|
H|------------------------------------------9------9-9------9-----9-9-9--|
A chord diagramG+G|------------------------------------------9------9-9------9-----9-9-9--|
A chord diagramD MajorD|------------------------------------------9------9-9------9-----9-9-9--|
a|--7-7-7-7-6-6-6-6-9-9-9-9-11-11-11-11---7----7-7------7-7---7-7--------|
e|-----------------------------------------------------------------------|

They're   just   cheats      and        liars

A chord diagramE MajorE|-------------------------------------------------------------------|
H|--------------------------------------9------9-9------9-----9-9-9--|
A chord diagramG+G|--------------------------------------9------9-9------9-----9-9-9--|
A chord diagramD MajorD|--------------------------------------9------9-9------9-----9-9-9--|
a|--6-6-6-6-4-4-4-4-2-2-2-2-0-0-0-0---7----7-7------7-7---7-7--------|
e|-------------------------------------------------------------------|

They   will   serve     you     well

Pre-chorus

A chord diagramE MajorE|--9--------------7-----------------9-----------------------7----------7---|
H|--9--------------9-----------------9---------12-9----------9----------7---|
A chord diagramG+G|--9--------------9-----------------9--------------11-9-----9----------8---|
A chord diagramD MajorD|--11-------------9-----------------11----------------------9----------9---|
a|-----------------7-----------------------------------------7----------9---|
e|----------------------------------------------------------------------7---|

Oh, are we so alive?      Are we so-o-o-o                 alive?


Chorus

A chord diagramE MajorE|-------------------------------------------------|
    H|-------9---12-9----------------9---12-9----------|
    A chord diagramG+G|-----9---9------11-11-9------9---9------11-11-9--|
    A chord diagramD MajorD|--11----------------------11---------------------|
    a|-------------------------------------------------|
    e|-------------------------------------------------|

Sooo

A chord diagramE MajorE|-------------------------------------------------|
    H|------9---12-9-------9-------9---12-9-------9----|
    A chord diagramG+G|----9---9------11-11-------9---9------11-11------|
    A chord diagramD MajorD|--9----------------------9-----------------------|
    a|-------------------------------------------------|
    e|-------------------------------------------------|

Sooo

A chord diagramE MajorE|-------------------------------------------------|
    H|-------9---12-9----------------9---12-9----------|
    A chord diagramG+G|-----9---9------11-11-9------9---9------11-11-9--|
    A chord diagramD MajorD|--11----------------------11---------------------|
    a|-------------------------------------------------|
    e|-------------------------------------------------|

Sooo

A chord diagramE MajorE|-------------------------------------------------|
    H|------9---12-9-------9-------9---12-9-------9----|
    A chord diagramG+G|----9---9------11-11-------9---9------11-11------|
    A chord diagramD MajorD|--9----------------------9-----------------------|
    a|-------------------------------------------------|
    e|-------------------------------------------------|

Sooo


Verse (Again.. Sorry...)

A chord diagramE MajorE|-----------------------------------------------------------------------|
H|------------------------------------------9------9-9------9-----9-9-9--|
A chord diagramG+G|------------------------------------------9------9-9------9-----9-9-9--|
A chord diagramD MajorD|------------------------------------------9------9-9------9-----9-9-9--|
a|--7-7-7-7-6-6-6-6-9-9-9-9-11-11-11-11---7----7-7------7-7---7-7--------|
e|-----------------------------------------------------------------------|

Day - light  breaks and I'm in your arms again

A chord diagramE MajorE|-------------------------------------------------------------------|
H|--------------------------------------9------9-9------9-----9-9-9--|
A chord diagramG+G|--------------------------------------9------9-9------9-----9-9-9--|
A chord diagramD MajorD|--------------------------------------9------9-9------9-----9-9-9--|
a|--6-6-6-6-4-4-4-4-2-2-2-2-0-0-0-0---7----7-7------7-7---7-7--------|
e|-------------------------------------------------------------------|

A chord diagramA augmentedA     ti - ger     waiting to be tamed

A chord diagramE MajorE|-----------------------------------------------------------------------|
H|------------------------------------------9------9-9------9-----9-9-9--|
A chord diagramG+G|------------------------------------------9------9-9------9-----9-9-9--|
A chord diagramD MajorD|------------------------------------------9------9-9------9-----9-9-9--|
a|--7-7-7-7-6-6-6-6-9-9-9-9-11-11-11-11---7----7-7------7-7---7-7--------|
e|-----------------------------------------------------------------------|

We're beat down fingers and we're beat down toes And we're beat down singers in the beat down halls

A chord diagramE MajorE|-------------------------------------------------------------------|
     H|--------------------------------------9------9-9------9-----9-9-9--|
     A chord diagramG+G|--------------------------------------9------9-9------9-----9-9-9--|
     A chord diagramD MajorD|--------------------------------------9------9-9------9-----9-9-9--|
     a|--6-------4-------2-------0---------7----7-7------7-7---7-7--------|
     e|-------------------------------------------------------------------|

But till time    came     back   twice around


Pre-chorus

A chord diagramE MajorE|--9--------------7-----------------9-----------------------7----------7---|
H|--9--------------9-----------------9---------12-9----------9----------7---|
A chord diagramG+G|--9--------------9-----------------9--------------11-9-----9----------8---|
A chord diagramD MajorD|--11-------------9-----------------11----------------------9----------9---|
a|-----------------7-----------------------------------------7----------9---|
e|----------------------------------------------------------------------7---|

Oh, are we so alive?      Are we so-o-o-o                 alive?


Chorus

A chord diagramE MajorE|-------------------------------------------------|
    H|-------9---12-9----------------9---12-9----------|
    A chord diagramG+G|-----9---9------11-11-9------9---9------11-11-9--|
    A chord diagramD MajorD|--11----------------------11---------------------|
    a|-------------------------------------------------|
    e|-------------------------------------------------|

Sooo

A chord diagramE MajorE|-------------------------------------------------|
    H|------9---12-9-------9-------9---12-9-------9----|
    A chord diagramG+G|----9---9------11-11-------9---9------11-11------|
    A chord diagramD MajorD|--9----------------------9-----------------------|
    a|-------------------------------------------------|
    e|-------------------------------------------------|

Sooo

A chord diagramE MajorE|-------------------------------------------------|
    H|-------9---12-9----------------9---12-9----------|
    A chord diagramG+G|-----9---9------11-11-9------9---9------11-11-9--|
    A chord diagramD MajorD|--11----------------------11---------------------|
    a|-------------------------------------------------|
    e|-------------------------------------------------|

Sooo

A chord diagramE MajorE|-------------------------------------------------|
    H|------9---12-9-------9-------9---12-9-------9----|
    A chord diagramG+G|----9---9------11-11-------9---9------11-11------|
    A chord diagramD MajorD|--9----------------------9-----------------------|
    a|-------------------------------------------------|
    e|-------------------------------------------------|

Sooo

Breakout

A chord diagramE MajorE|--9-----------------------------------------------------------------7-----------------|
H|--9-----------------------------------------------------------------9-----------------|
A chord diagramG+G|--9-----------------------------------------------------------------9-----------------|
A chord diagramD MajorD|--11----------------------------------------------------------------9-----------------| x5
a|--------------------------------------------------------------------7-----------------|
e|--------------------------------------------------------------------------------------|

Oh this town, it's so electric Since I got the feeling I can't shut down

A chord diagramE MajorE|--------------------------------------------------------------------------------------------------|
H|--9--9--9--9--9--9--9--9--12-12-12-12-9--9--9--9--9--9--9--9--9--9--9--9--9--9--9--9--9--9--9--9--|
A chord diagramG+G|--9--9--9--9--9--9--9--9--9--9--9--9--9--9--11-11-9--9--9--9--9--9--9--9--9--9--9--9--9--9--9--9--|
A chord diagramD MajorD|--11-11-11-11-11-11-11-11-11-11-11-11-11-11-11-11-9--9--9--9--9--9--9--9--9--9--9--9--9--9--9--9--|
a|--------------------------------------------------7--7--7--7--7--7--7--7--7--7--7--7--7--7--7--7--|
e|--------------------------------------------------------------------------------------------------|

WE ARE A chord diagramA augmentedA MESS!!

A chord diagramE MajorE|--------------------------------------------------------------------------------------------------|
H|--9--9--9--9--9--9--9--9--12-12-12-12-9--9--9--9--9--9--9--9--9--9--9--9--9--9--9--9--9--9--9--9--|
A chord diagramG+G|--9--9--9--9--9--9--9--9--9--9--9--9--9--9--11-11-9--9--9--9--9--9--9--9--9--9--9--9--9--9--9--9--|
A chord diagramD MajorD|--11-11-11-11-11-11-11-11-11-11-11-11-11-11-11-11-9--9--9--9--9--9--9--9--9--9--9--9--9--9--9--9--|
a|--------------------------------------------------7--7--7--7--7--7--7--7--7--7--7--7--7--7--7--7--|
e|--------------------------------------------------------------------------------------------------|

A chord diagramE MajorE|--------------------------------------------------------------------------------------------------|
H|--9--9--9--9--9--9--9--9--12-12-12-12-9--9--9--9--9--9--9--9--9--9--9--9--9--9--9--9--9--9--9--9--|
A chord diagramG+G|--9--9--9--9--9--9--9--9--9--9--9--9--9--9--11-11-9--9--9--9--9--9--9--9--9--9--9--9--9--9--9--9--|
A chord diagramD MajorD|--11-11-11-11-11-11-11-11-11-11-11-11-11-11-11-11-9--9--9--9--9--9--9--9--9--9--9--9--9--9--9--9--|
a|--------------------------------------------------7--7--7--7--7--7--7--7--7--7--7--7--7--7--7--7--|
e|--------------------------------------------------------------------------------------------------|

A chord diagramE MajorE|--------------------------------------------------------------------------------------------------|
H|--9--9--9--9--9--9--9--9--12-12-12-12-9--9--9--9--9--9--9--9--9--9--9--9--9--9--9--9--9--9--9--9--|
A chord diagramG+G|--9--9--9--9--9--9--9--9--9--9--9--9--9--9--11-11-9--9--9--9--9--9--9--9--9--9--9--9--9--9--9--9--|
A chord diagramD MajorD|--11-11-11-11-11-11-11-11-11-11-11-11-11-11-11-11-9--9--9--9--9--9--9--9--9--9--9--9--9--9--9--9--|
a|--------------------------------------------------7--7--7--7--7--7--7--7--7--7--7--7--7--7--7--7--|
e|--------------------------------------------------------------------------------------------------|

A chord diagramE MajorE|---------------------------------------------x----------------------------------------------------|
H|--9--9--9--9--9--9--9--9--12-12-12-12-9--9---x----9--9--9--9--9--9--9--9--9--9--9--9--9--9--9--9--|
A chord diagramG+G|--9--9--9--9--9--9--9--9--9--9--9--9--9--9---x----9--9--9--9--9--9--9--9--9--9--9--9--9--9--9--9--|
A chord diagramD MajorD|--11-11-11-11-11-11-11-11-11-11-11-11-11-11--x----9--9--9--9--9--9--9--9--9--9--9--9--9--9--9--9--|
a|---------------------------------------------x----7--7--7--7--7--7--7--7--7--7--7--7--7--7--7--7--|
e|---------------------------------------------x----------------------------------------------------|

WOOO!!

A chord diagramE MajorE|--------------------------------------------------------------------------------------------------|
H|--9--9--9--9--9--9--9--9--12-12-12-12-9--9--9--9--9--9--9--9--9--9--9--9--9--9--9--9--9--9--9--9--|
A chord diagramG+G|--9--9--9--9--9--9--9--9--9--9--9--9--9--9--11-11-9--9--9--9--9--9--9--9--9--9--9--9--9--9--9--9--|
A chord diagramD MajorD|--11-11-11-11-11-11-11-11-11-11-11-11-11-11-11-11-9--9--9--9--9--9--9--9--9--9--9--9--9--9--9--9--|
a|--------------------------------------------------7--7--7--7--7--7--7--7--7--7--7--7--7--7--7--7--|
e|--------------------------------------------------------------------------------------------------|

A chord diagramE MajorE|---------------------------x-x--|T
H|--9---12--10--9----10--12--x-x--|H
A chord diagramG+G|--9------------------------x-x--|A chord diagramE MajorE
A chord diagramD MajorD|--11-----------------------x-x--|A chord diagramE MajorE
a|---------------------------x-x--|N
e|---------------------------x-x--|A chord diagramD MajorD

I hope you guys like it, it was pretty hard for me to tab this but I'm glad I made it.
If you have any questions or any ideas to make these tabs better, you can write me on
                             twitter @martythesmarty1 x


THE END!

↓ Add and view comments below ↓

What do you think about this song and these tabs?

Add your comments, questions, rant or a thumbs up below.

Almost there ...

Sign in to get your own page with links to favourite songs and more. You are just one click away...

Login with Facebook Login with Google