Log in

One click and you are in

Login with Facebook Login with Google

Why sign up and log in

Guitar Tabs Explorer
Dog Eat Dog chords for Stripsong

Guitar chords

Dog Eat Dog - Strip Song
Album: All boro kings

------------------------------------------------------------------
                       Strip Song - Dog Eat Dog
------------------------------------------------------------------
by: Hendrik Jacobs©
INTRO:

e|--------------------------|----------------------------|
b|--------------------------|----------------------------|
g|---------------5-5--------|----------------3-3---------|
d|4-4-4-*-4~-4-4-5-5--------|-4-4-4-*-4~-4-4-3-3---------|
a|4-4-4-*-4~-4-4-3-3--------|-4-4-4-*-4~-4-4-1-1---------|
A chord diagramE MajorE|2-2-2-*-2~-2-4------------|-2-2-2-*-2~-2-4-------------|

FILL1:
e|--------------------------|
b|--------------------------|
g|----6~~-------------------|
d|4~~-6~~-------------------|
a|4~~-4~~-------------------|
A chord diagramE MajorE|2~~-----------------------|

Fill2:

e|--------------------------|
b|--------------------------|
g|----6~~-8~----------------|
d|4~~-6~~-8~----------------|
a|4~~-4~~-6~----------------|
A chord diagramE MajorE|2~~-----------------------|

This is the melody for the saxs beceuase I don't know the rihgt
way to tab it but it sounds good on a guitar.

chorus

e|----------------------------|-------------------------------|
b|----------------------------|-------------------------------|
g|----------------------------|-------------------------------|
d|-\9-8-9-\12-/9-8-9-8-9-8-\2-|-\9-8-9-\12-/9-8-9-\12-\13-\14-|
a|----------------------------|-------------------------------|
A chord diagramE MajorE|----------------------------|-------------------------------|


VERSE:

e|----------------------|-----------------------|
b|----------------------|-----------------------|
g|-----------------5-5--|-----------------------|
d|4-4-*-*-4~-4-4-*-5-5--|-4-4-*-*-4~-*-2-2-3-3--|
a|4-4-*-*-4~-4-4-*-3-3--|-4-4-*-*-4~-*-2-2-3-3--|
A chord diagramE MajorE|2-2-*-*-2~-2-2-*------|-2-2-*-*-2~-*-0-0-1-1--|


intro  x6
fill1

intro  x5
fill2

chorus x2

intro  x6
fill2

chorus x2

verse  x10

Almost there ...

Sign in to get your own page with links to favourite songs and more. You are just one click away...

Login with Facebook Login with Google