Log in

One click and you are in

Login with Facebook Login with Google

Why sign up and log in

Guitar Tabs Explorer
Dog Eat Dog tabs for Isms

Guitar tabs with lyrics

--------------Cut here------------------
    Album: Play Games
----------------------------------------
Tabbed by: Vytis Puronas (VYTiS)
   E-mail: vytis@gmx.net
           vytis@postmaster.co.uk
      WWW: http://dogeatdog.homepage.nu/
----------------------------------------
   -= [ISMS] =-

[Part 1]
e ---|------------------------------|
H ---|------------------------------|
A chord diagramG+G ---|----------------5---5-6-7-----|
A chord diagramD MajorD xx-|x7-----x7-----xx5---5-6-7-----|
A chord diagramA augmentedA xx-|x7-----x7-----xx3---3-4-5-----|
A chord diagramE MajorE xx-|x5-----x5-----xx--------------|
 (this is the main guitar part, the solo comes
  over slightly. Don't play it too loud!):

[Solo 1]
e --------5~~~---5~-----5~~------5~-|
H ----------------------------------|
A chord diagramG+G ----------------------------------|


[Part 2]                                 A*        B*
e -------------------------------------|---|     |---|
H -------------------------------------|---|     |---|
A chord diagramG+G --------------------------------5--6-|---|     |7--|
A chord diagramD MajorD --7-7---252-7-7---252-7-7---252-5--6-|5--|     |7--|
A chord diagramA augmentedA --7-7---252-7-7---252-7-7---252-3--4-|5--|     |5--|
A chord diagramE MajorE --5-5---030-5-5---030-5-5---030------|3--|     |---|
  (here goes some solo as well):

[Solo 2]
e ----9~--------9~--------9~---------------|
H ---10~-------10~-------10~---------------|
A chord diagramG+G -----------------------------------------|
  after finishing with part2, end like that:
[End 2]
e ----------------------------|
H ----------------------------|
A chord diagramG+G -----------------9-9-9-9-9--|
A chord diagramD MajorD -5-5-5-5-5-5-5-5-9-9-9-9-9--|
A chord diagramA augmentedA -5-5-5-5-5-5-5-5-7-7-7-7-7--|
A chord diagramE MajorE -3-3-3-3-3-3-3-3------------|

[Part 3]                                             A*        B*
e -------------------------------------------------|---|     |------|
H -------------------------------------------------|---|     |------|
A chord diagramG+G ------5--7----------8--7----------5--7-------10--|9--|     |9~~~~-|
A chord diagramD MajorD --7---5--7---5--7---8--7---5--7---5--7---5---10--|9--|     |9~~~~-|
A chord diagramA augmentedA --7---3--5---5--7---6--5---5--7---3--5---5----8--|7--|     |7~~~~-|
A chord diagramE MajorE --5----------3--5----------3--5----------3-------|---|     |------|


[Part 4]
e ---------------------------|
H ---------------------------|
A chord diagramG+G --------------5-----7------|
A chord diagramD MajorD --7-----------5-----7------|
A chord diagramA augmentedA --7-----------3-----5------|
A chord diagramE MajorE --5------------------------|

[Solo 4]
e ----------------3-0---5-8~~|
H ---------------------------|
A chord diagramG+G ---------------------------|

[Last chord]
e --------|
H --------|
A chord diagramG+G --------|
A chord diagramD MajorD --7-----|
A chord diagramA augmentedA --7-----|
A chord diagramE MajorE --5-----|

---------------------------------------

-= [Song structure] =-

Part 1 together with Solo 1         (x4)
Part 2 A* and Part 2 B* with Solo 2 (x2)

Ending of Part 2
Part 1 together with Solo 1         (x2)
Part 2 A* and Part 2 B* with Solo 2 (x2)

Ending of Part 2
Part 3 A* and Part 3 B*             (x1)
Part 4 with Solo 4
Part 2 A* and Part 2 B* with Solo 2 (x2)

Ending of Part 2
Last Chord

----------------------------------------
ⓘ Guitar tab for 'Isms' by Dog Eat Dog, a pop-punk band formed in 1990 from Bergen County, USA

Almost there ...

Sign in to get your own page with links to favourite songs and more. You are just one click away...

Login with Facebook Login with Google