Log in

One click and you are in

Login with Facebook Login with Google

Why sign up and log in

Guitar Tabs Explorer
Dodie chords for Intertwined ukulele

Guitar chords with lyrics

Tuning: G C E A (G C E A)


NOTE: Left handed version

🎸 Verse:

  C

G|------------------------------------------------------------|
C|----------------2---4--0----2-------------------------------|
E|-0-----3--------------------------3--------5----0----3------|
A|------------------------------------------------------------|
 Skin, heat... hair in your mouth, feet... touching feet
G|-----------------------------------------------------------------------|
C|-------------------2----4----5-----------------------------------------|
E|-1---0-----5-3-0------------------3------0------1---3------5----5--7---|
A|-----------------------------------------------------------------------|
 Oh, you... and I, safe from the world...though the world will try

🎸 Chorus:

G|-------------------------------------------------|
C|-------------------------------------------------|
E|-------------------------------------------------|
A|-0-2-3--5---3--3---5---3--6-5-3--5--3---3--------|
   Oh, i'm afraid of the things in my brain

G|---------------------------------------------------|
C|----------------------------2----2-----------------|
E|-4---3--0----3---5-----0--------------------3------|
A|-----------------------------------3--0------------|
 But we can stay here, and laugh away the fear

🎸 Verse 2:

G|----------------------------------------------------------|
C|-------------------2--0---0-------------------------------|
E|-0-----3------0--------------------0--1--3-3-5---3--------|
A|----------------------------3-2-0-------------------------|
 numb, fine... you create a rarity of my genuine smiles

G|------------------------------------------------------------------------------------------|
C|------------------------------------------------------------------------------------------|
E|-1-0---0-------3-5-3---0----0-----------------------------------------3---------------3---|
A|----------------------------------3---2-----0---2---3---8---------0------10----5--2-------|
  so breathe, breathe with me... can you drink all my thoughts? Cause I can't stand them


🎸 Bridge:

G|--------------------------------------------------------------|
C|-----------------------------------------3--1-----------------|
E|--------------------------------3-4-3-1-----------------------|
A|-3-4-3-1-------1-3--------1--3--------------------------------|
  ohhhhhh...... I...... ooHHhhH ohHh oh oh oh

🎸 Verse 3:

G|----------------------------------------------------------------|
C|-0-3-0--------3-----0-----3-----0----0-------------0----3-------|
E|-----------------------------------------1-----1----------------|
A|----------------------------------------------------------------|
 Interwined, free...I've pinned each and every hope on you


G|----------------------------------------------------------|
C|-1--3----3----3-5---5-------------------------------------|
E|-----------------------1-3--4-3-1-3--4--------------------|
A|----------------------------------------------------------|
  I hope that you don't bleed with  me

🎸 Chorus:

G|-------------------------------------------------|
C|-------------------------------------------------|
E|-------------------------------------------------|
A|-0-2-3--5---3--3---5---3--6-5-3--5--3---3--------|
   Oh, i'm afraid of the things in my brain

G|---------------------------------------------------|
C|----------------------------2----2-----------------|
E|-4---3--0----3---5-----0--------------------3------|
A|-----------------------------------3--0------------|
 But we can stay here, and laugh away the fear

🎸 Outro:

G|--------------------------------------------------------------|
C|-----------------------------------------3--1-----------------|
E|--------------------------------3-4-3-1-----------------------|
A|-3-4-3-1-------1-3--------1--3--------------------------------|
  mmmmmmmm.....mmm.......mmmmmm....mmm...mmm...mmmm..mm

Almost there ...

Sign in to get your own page with links to favourite songs and more. You are just one click away...

Login with Facebook Login with Google