Log in

One click and you are in

Login with Facebook Login with Google

Why sign up and log in

Guitar Tabs Explorer
Malachi Doane guitar tabs for Ashleys ditty

Guitar tabs

---------------------------------------------
"Ashley's Ditty" ->  By Malachi Doane 2003
-------------------------------------------------------
Pick brightly and move it along.
(*)<- this is my sign for a Coda

123456
||||||
|||||X<--5th fret
||||X|
|||X||  <-tap this with your pinki finger
||||||
||||||
||||||
||||||


|5----5----5----7--5------------------
|--6----6----6-------6----------------
|7----7-------------------------------
|-------------------------------------
|-------------------------------------
|-------------------------------------


A chord diagramA minorAm

|0----0----0----1--0------------------
|--1----1----1--------1---------------
|2----2-------------------------------
|-------------------------------------
|-------------------------------------
|-------------------------------------


 A chord diagramE MajorE                           Asus?

                          (*) Repeat once and follow
Coda to final cord->
|---------------------------------------------------|R
|0-----0-----0------1--0--------------------------@-|A chord diagramE MajorE
|---1-----1----1---------1---2-----2-----2----2-----|P
|2-----2---------------------2--2--2--2--2--2-----@-|A chord diagramE MajorE
|---------------------------------------------------|A chord diagramA augmentedA
|---------------------------------------------------|T

CODA                         END
|------5----5----5--------     |
|------5----5----5----------   |
|-------6----6----6---------   |
|--------7----7----7-------    |
|------0----0----0-----------  |
|------0----0----0------------ |

↓ Add and view comments below ↓

What do you think about this song and these tabs?

Add your comments, questions, rant or a thumbs up below.

Almost there ...

Sign in to get your own page with links to favourite songs and more. You are just one click away...

Login with Facebook Login with Google