Log in

One click and you are in

Login with Facebook Login with Google

Why sign up and log in

Guitar Tabs Explorer
Do As Infinity guitar chords for Ever need your love

Ever Need Your Love chords by Do As Infinity

Do As Infinity guitar chords for Ever need your love

Guitar chords with lyrics

INTRO:


e--------------------------------------------------------------|
b--------------------------------------------------------------|
g--------------------------------------------------------------|
d---7----------------------------------------------------------|
a--------------8-7-8-------------------------------------------|
e-7---5-8-7-8-7------------------------------------------------|
Chords that go along with ^:C

1ST VERSE:

A chord diagramD MajorD
      A chord diagramC majorC
ame wa namida kakushite kureru kara
      A chord diagramC majorC
kasa wa sasanai mama de kaeritai
     A chord diagramD MajorD
aruki nareta hazu no machi na noni
     CCCG      DDDG     EM7
hidoku   kodoku    ni naru


Bridge:
  EM7
negai ga moshimo kanau no naraba
A chord diagramC majorC
hitotsu dake negau

1ST CHORUS:

CADD9

BM
itsuka mata umarekawattemo ne

    AM
kimi to deaeru ki ga suru yo

CADD9
ai wo shinjite

BM
Itai onaji sora no shita de

     AM
ikiru imi nara koko ni aru

 CADD9
betsubetsu no michi demo


2ND VERSE:
       A chord diagramD MajorD
kimi ga kureta nagai yoru no hate ni
      CCC A chord diagramG MajorG
yagate     tomosu        hikari

BRIDGE:
    EM7
yamanai amaoto ni mou sukoshi
      A chord diagramC majorC
tsutsumarete itai


2ND CHORUS:
CADD9
     BM
kimi dake wo mamoreru tsuyosa dake

    AM
itsumo sagashite tsumazuite

  CADD9
kizutsukeatta

  BM
hibi sae itoshiku omoeru yo

     AM
ai wo shiranakatta watashi wa

CADD9
okubyoumono datta ne


INSTRUMENTAL BREAK~~~~~~

LAST CHORUS( REPEAT OF 1ST CHORUS):
CADD9

BM
itsuka mata umarekawattemo ne

    AM
kimi to deaeru ki ga suru yo

CADD9
ai wo shinjite


BM
Itai onaji sora no shita de

     AM
ikiru imi nara koko ni aru

 CADD9
betsubetsu no michi demo


Ending:

e--------------------------------------------------------------|
b--------------------------------------------------------------|
g--------------------------------------------------------------|
d---7----------------------------------------------------------|
a--------------8-7-8-------------------------------------------|
e-7---5-8-7-8-7------------------------------------------------|
Chords that go along with ^:

↓ Add and view comments below ↓

What do you think about this song and these chords?

Add your comments, questions, rant or a thumbs up below.

Almost there ...

Sign in to get your own page with links to favourite songs and more. You are just one click away...

Login with Facebook Login with Google