Log in

One click and you are in

Login with Facebook Login with Google

Why sign up and log in

Guitar Tabs Explorer
Dj Snake And Lil John guitar tabs for Turn down for what

Turn Down For What tab by Dj Snake And Lil John

Dj Snake And Lil John guitar tabs for Turn down for what

Guitar tabs

-12-12--------------------|
-------13--12-12/13-------|
---------------------9----|
--------------------------|   x4
--------------------------|
--------------------------|
---------------------|
-5-5-----------------|
------5-4--4/5-------|
---------------2-----|    x4
---------------------|
---------------------|

-12-12--------------------|
-------13--12-12/13-------|
---------------------9----|
--------------------------|   x4
--------------------------|
--------------------------|


---------------------|
-5-5-----------------|
------5-4--4/5-------|
---------------2-----|    x4
---------------------|
---------------------|


electronic breakdown you can play this
------------------------|
------------------------|
------------------------|
2-2-2-2-3-3-2-2-2-2-5-5-|
2-2-2-2-3-3-2-2-2-2-5-5-|
0-0-0-0-1-1-0-0-0-0-3-3-|



-12-12--10h12h13-12-12-12-10h12h13-12-12-10h12h13-12-12-14-12-----|
------------------------------------------------------------------|
------------------------------------------------------------------|
------------------------------------------------------------------|    x2
------------------------------------------------------------------|
------------------------------------------------------------------|


-------------------------------------------------------------|
-5-5--3h5h6-5-5-5-3h5h6-5-5-3h5h6-5-5-6-3--------------------|
-------------------------------------------------------------|
-------------------------------------------------------------|    x2
-------------------------------------------------------------|
-------------------------------------------------------------|


-12-12--10h12h13-12-12-12-10h12h13-12-12-10h12h13-12-12-14-12-----|
------------------------------------------------------------------|
------------------------------------------------------------------|
------------------------------------------------------------------|    x2
------------------------------------------------------------------|
------------------------------------------------------------------|


-------------------------------------------------------------|
-5-5--3h5h6-5-5-5-3h5h6-5-5-3h5h6-5-5-6-3--------------------|
-------------------------------------------------------------|
-------------------------------------------------------------|    x2
-------------------------------------------------------------|
-------------------------------------------------------------|

electronic breakdown


-10-10-10-12---10-10-10-12--12-12-10-10-10-12--10-10-10-12-14-14----|
--------------------------------------------------------------------|
--------------------------------------------------------------------|
--------------------------------------------------------------------|   x4
--------------------------------------------------------------------|
--------------------------------------------------------------------|


-12----12---12-----12-14-14-|
----------------------------|
----------------------------|
----------------------------|  x4
----------------------------|
----------------------------|


-10-10-10-12---10-10-10-12--12-12-10-10-10-12--10-10-10-12-14-14----|
--------------------------------------------------------------------|
--------------------------------------------------------------------|
--------------------------------------------------------------------|   x4
--------------------------------------------------------------------|

Almost there ...

Sign in to get your own page with links to favourite songs and more. You are just one click away...

Login with Facebook Login with Google