Log in

One click and you are in

Login with Facebook Login with Google

Why sign up and log in

Guitar Tabs Explorer
Dizzee Rascal tabs for Holiday

Guitar tabs with lyrics

-------------------------------------------------------------------------------
			     Holiday - Dizzee Rascal
-------------------------------------------------------------------------------
Tabbed by: Anthony Cleaver
Tuning: Standard

Some quick notes
1. The timings are not exact, listen to the song to get them.
2. This is nothing more than an interpretation, the song is not played
   originally on a guitar


Intro

     A chord diagramE MajorE
A chord diagramE MajorE||--------------------------|----------------------3--|
A chord diagramBB||--------------------------|----------------------3--|
A chord diagramG+G||--------------------------|----------------------4--|
A chord diagramD MajorD||-----7-----7-----7-----7--|-----7-----7----------5--|
A chord diagramA augmentedA||--------------------------|-------------------------|
A chord diagramE MajorE||--5-----5-----5-----5-----|--5-----5-----5\---------|


  A chord diagramE MajorE
--5--7---8----8----8----7--|---8--10--12---12---12----10--|
--5--7---8----8----8----7--|---8--10--12---12---12----10--|
--5--7---9----9----9----7--|---9--11--12---12---12----11--|
--7--9--10---10---10----9--|--10--12--14---14---14----12--|
---------------------------|------------------------------|
---------------------------|------------------------------|


   A chord diagramE MajorE
--12--10---8----8----8----10--|---8--7--5---5---5----3--|
--12--10---8----8----8----10--|---8--7--5---5---5----3--|
--12--11---9----9----9----11--|---9--7--5---5---5----4--|
--14--12--10---10---10----12--|--10--9--7---7---7----5--|
------------------------------|-------------------------|
------------------------------|-------------------------|

Main Riff

    A chord diagramE MajorE
|---5--7---8----8----8----7--|---8--10--12---12---12----10--|
|---5--7---8----8----8----7--|---8--10--12---12---12----10--|
|*--5--7---9----9----9----7--|---9--11--12---12---12----11--|
|*--7--9--10---10---10----9--|--10--12--14---14---14----12--|
|----------------------------|------------------------------|
|----------------------------|------------------------------|


   A chord diagramE MajorE   3x
--12--10---8----8----8----10--|---8--7--5---5---5----3---||
--12--10---8----8----8----10--|---8--7--5---5---5----3---||
--12--11---9----9----9----11--|---9--7--5---5---5----4--*||
--14--12--10---10---10----12--|--10--9--7---7---7----5--*||
------------------------------|--------------------------||
------------------------------|--------------------------||


  A chord diagramE MajorE
--5--7---8----8----8----7--|---8--10--12---12---12----10--|
--5--7---8----8----8----7--|---8--10--12---12---12----10--|
--5--7---9----9----9----7--|---9--11--12---12---12----11--|
--7--9--10---10---10----9--|--10--12--14---14---14----12--|
---------------------------|------------------------------|
---------------------------|------------------------------|


   A chord diagramE MajorE
--12--10---8----8----8----10--|---8--7--5---5---5----L--|
--12--10---8----8----8----10--|---8--7--5---5---5----L--|
--12--11---9----9----9----11--|---9--7--5---5---5----L--|
--14--12--10---10---10----12--|--10--9--7---7---7----L--|
------------------------------|-------------------------|
------------------------------|-------------------------|


Chorus

    A chord diagramE MajorE   Q     Q     3x
|---------------------------|----------------------------||
|---5---5-------8----8------|---8----8------12----12-----||
|*--5---5-------9----9------|---9----9------12----12----*||
|*--7---7------10---10------|--10---10------14----14----*||
|---7---7------10---10------|--10---10------14----14-----||
|---5---5-------8----8------|---8----8------12----12-----||


   S  S  E.
--15-15-13--12--10-12---8--8-10-12----|----------------------|
-----------------------------------10-|--L--8------------5---|
--12-12-10---9---7--9---5--5--7--9----|------------------5---|
------------------------------------7-|-----5------------7---|
--------------------------------------|----------------------|
--------------------------------------|----------------------|

Second Verse

    E.   3x
|----------------------------|----------------------------||
|---7----8----8----8-----8---|---8----8----8----8----5----||
|*--7----9----9----9-----9---|--10----9----9----9----5---*||
|*--9---10---10---10----10---|--10---10---10---10----7---*||
|----------------------------|----------------------------||
|----------------------------|----------------------------||


  A chord diagramE MajorE
---------------------------|-------------------------3--|
--7----8----8----8-----8---|---8----8----8----8------3--|
--7----9----9----9-----9---|--10----9----9----9------3--|
--9---10---10---10----10---|--10---10---10---10------5--|
---------------------------|----------------------------|
---------------------------|----------------------------|


  A chord diagramE MajorE
--5--7---8----8----8----7--|---8--10--12---12---12----10--|
--5--7---8----8----8----7--|---8--10--12---12---12----10--|
--5--7---9----9----9----7--|---9--11--12---12---12----11--|
--7--9--10---10---10----9--|--10--12--14---14---14----12--|
---------------------------|------------------------------|
---------------------------|------------------------------|


   A chord diagramE MajorE
--12--10---8----8----8----10--|---8--7--5---5---5----3--|
--12--10---8----8----8----10--|---8--7--5---5---5----3--|
--12--11---9----9----9----11--|---9--7--5---5---5----4--|
--14--12--10---10---10----12--|--10--9--7---7---7----5--|
------------------------------|-------------------------|
------------------------------|-------------------------|


  A chord diagramE MajorE
--5--7---8----8----8----7--|---8--10--12---12---12----10--|
--5--7---8----8----8----7--|---8--10--12---12---12----10--|
--5--7---9----9----9----7--|---9--11--12---12---12----11--|
--7--9--10---10---10----9--|--10--12--14---14---14----12--|
---------------------------|------------------------------|
---------------------------|------------------------------|


   A chord diagramE MajorE
--12--10---8----8----8----10--|---8--7--5---5---5----L--|
--12--10---8----8----8----10--|---8--7--5---5---5----L--|
--12--11---9----9----9----11--|---9--7--5---5---5----L--|
--14--12--10---10---10----12--|--10--9--7---7---7----L--|
------------------------------|-------------------------|
------------------------------|-------------------------|


Chorus Again

    A chord diagramE MajorE   Q     Q     3x
|---------------------------|----------------------------||
|---5---5-------8----8------|---8----8------12----12-----||
|*--5---5-------9----9------|---9----9------12----12----*||
|*--7---7------10---10------|--10---10------14----14----*||
|---7---7------10---10------|--10---10------14----14-----||
|---5---5-------8----8------|---8----8------12----12-----||


   S  S  E.
--15-15-13--12--10-12---8--8-10-12----|----------------------|
-----------------------------------10-|--L--8----------------|
--12-12-10---9---7--9---5--5--7--9----|----------------------|
------------------------------------7-|--L--5----------------|
--------------------------------------|----------------------|
--------------------------------------|----------------------|

3rd Verse

  A chord diagramE MajorE
-------------------------|-------------------------|-------------------------|
-------------------------|-------------------------|-------------------------|
-------------------------|-------------------------|-------------------------|
-------------------------|-------------------------|-------------------------|
-----7-----3------3------|-----3-----3------7------|-----7-----3------3------|
--5-----3-----1-------1--|--L-----3-----5-------5--|--L-----3-----1-------1--|


  A chord diagramE MajorE
-------------------------|--L----------------------|-------------------------|
----------------------5--|--L--5--3--3--1---1---1--|--L--1--3--3--5---5---5--|
----------------------5--|--L--5--4--4--2---2---2--|--L--2--4--4--5---5---5--|
----------------------7--|--L--7--5--5--3---3---3--|--L--3--5--5--7---7---7--|
-----3-----3------7---7--|--L--7--5--5--3---3---3--|--L--3--5--5--7---7---7--|
--L-----3-----5-------5--|--L--5--3--3--1---1---1--|--L--1--3--3--5---5---5--|


  A chord diagramE MajorE
--L----------------------|----------------------3--|--5--7---8----8----8----7--|
--L--5--3--3--1---1---1--|--L--1--3--3--5---5---3--|--5--7---8----8----8----7--|
--L--5--4--4--2---2---2--|--L--2--4--4--5---5---4--|--5--7---9----9----9----7--|
--L--7--5--5--3---3---3--|--L--3--5--5--7---7---5--|--7--9--10---10---10----9--|
--L--7--5--5--3---3---3--|--L--3--5--5--7---7------|---------------------------|
--L--5--3--3--1---1---1--|--L--1--3--3--5---5------|---------------------------|


   A chord diagramE MajorE
---8--10--12---12---12----10--|--12--10---8----8----8----10--|
---8--10--12---12---12----10--|--12--10---8----8----8----10--|
---9--11--12---12---12----11--|--12--11---9----9----9----11--|
--10--12--14---14---14----12--|--14--12--10---10---10----12--|
------------------------------|------------------------------|
------------------------------|------------------------------|


   A chord diagramE MajorE
---8--7--5---5---5----3--|--5--7---8----8----8----7--|
---8--7--5---5---5----3--|--5--7---8----8----8----7--|
---9--7--5---5---5----4--|--5--7---9----9----9----7--|
--10--9--7---7---7----5--|--7--9--10---10---10----9--|
-------------------------|---------------------------|
-------------------------|---------------------------|


   A chord diagramE MajorE
---8--10--12---12---12----10--|--12--10---8----8----8----10--|
---8--10--12---12---12----10--|--12--10---8----8----8----10--|
---9--11--12---12---12----11--|--12--11---9----9----9----11--|
--10--12--14---14---14----12--|--14--12--10---10---10----12--|
------------------------------|------------------------------|
------------------------------|------------------------------|


   A chord diagramE MajorE
---8--7--5---5---5----5--|
---8--7--5---5---5----5--|
---9--7--5---5---5----5--|
--10--9--7---7---7----7--|
-------------------------|
-------------------------|


Outro Chorus

    A chord diagramE MajorE
|---5---5---3--3---3---1--|--1---1---1--1---1---1--|
|---5---5---3--3---3---1--|--1---1---1--1---1---1--|
|*--5---5---4--4---4---2--|--2---2---2--2---2---2--|
|*--7---7---5--5---5---3--|--3---3---3--3---3---3--|
|-------------------------|------------------------|
|-------------------------|------------------------|


  A chord diagramE MajorE
--1---1---3--3---3---5--|--5---5---5--5---5---5---||--5---5---5--5---5------|
--1---1---3--3---3---5--|--5---5---5--5---5---5---||--5---5---5--5---5---5--|
--2---2---4--4---4---5--|--5---5---5--5---5---5--*||--5---5---5--5---5---5--|
--3---3---5--5---5---7--|--7---7---7--7---7---7--*||--7---7---7--7---7---7--|
------------------------|-------------------------||---------------------7--|
------------------------|-------------------------||---------------------5--|


  A chord diagramE MajorE  A chord diagramE MajorE  A chord diagramE MajorE  A chord diagramE MajorE  A chord diagramE MajorE  A chord diagramE MajorE  A chord diagramE MajorE  S S    S S S S S S S S S S S S S S A chord diagramE MajorE
---------------------------|------------------------------5--|
--5--5--5--5--5--5--5--5-5-|--5-5-5-5-5-5-5-5-5-5-5-5-5-5-5--|
--5--5--5--5--5--5--5--5-5-|--5-5-5-5-5-5-5-5-5-5-5-5-5-5-5--|
--7--7--7--7--7--7--7--7-7-|--7-7-7-7-7-7-7-7-7-7-7-7-7-7-7--|
--7--7--7--7--7--7--7--7-7-|--7-7-7-7-7-7-7-7-7-7-7-7-7-7-7--|
--5--5--5--5--5--5--5--5-5-|--5-5-5-5-5-5-5-5-5-5-5-5-5-5-5--|


Outro

  A chord diagramE MajorE
--5---5---3--3---3---1--|--1---1---1--1---1---1--|--1---1---3--3---3---5--|
--5---5---3--3---3---1--|--1---1---1--1---1---1--|--1---1---3--3---3---5--|
--5---5---4--4---4---2--|--2---2---2--2---2---2--|--2---2---4--4---4---5--|
--7---7---5--5---5---3--|--3---3---3--3---3---3--|--3---3---5--5---5---7--|
--7---7---5--5---5---3--|--3---3---3--3---3---3--|--3---3---5--5---5---7--|
--5---5---3--3---3---1--|--1---1---1--1---1---1--|--1---1---3--3---3---5--|


  A chord diagramE MajorE
--5---5---5--5---5---5--|
--5---5---5--5---5---5--|
--5---5---5--5---5---5--|
--7---7---7--7---7---7--|
--7---7---7--7---7---7--|
--5---5---5--5---5------|

This is a synth overlay in the actual song either play this or the previous

riff

    A chord diagramE MajorE
|---5---5---7--7---7---5--|--5---5---5--5---5---5--|
|---5---5---8--8---8---7--|--7---7---7--7---7---7--|
|*--5---5---9--9---9---7--|--7---7---7--7---7---7--|
|*--7---7---9--9---9---7--|--7---7---7--7---7---7--|
|---7---7---7--7---7---5--|--5---5---5--5---5---5--|
|-------------------------|------------------------|

  A chord diagramE MajorE   6x
--5---5---7--7---7---5--|--5---5---5--5---5---5---||
--7---7---8--8---8---5--|--5---5---5--5---5---5---||
--7---7---9--9---9---5--|--5---5---5--5---5---5--*||
--7---7---9--9---9---7--|--7---7---7--7---7---7--*||
--5---5---7--7---7---7--|--7---7---7--7---7---7---||
------------------------|-------------------------||


  A chord diagramE MajorE
--5---5---3--3---3---1--|--1---1---1--1---1---1--|
--5---5---3--3---3---1--|--1---1---1--1---1---1--|
--5---5---4--4---4---2--|--2---2---2--2---2---2--|
--7---7---5--5---5---3--|--3---3---3--3---3---3--|
--7---7---5--5---5---3--|--3---3---3--3---3---3--|
--5---5---3--3---3---1--|--1---1---1--1---1---1--|

  A chord diagramE MajorE
--1---1---3--3---3---5--|--5---5---5--5---5---5--|
--1---1---3--3---3---5--|--5---5---5--5---5---5--|
--2---2---4--4---4---5--|--5---5---5--5---5---5--|
--3---3---5--5---5---7--|--7---7---7--7---7---7--|
--3---3---5--5---5---7--|--7---7---7--7---7---7--|
--1---1---3--3---3---5--|--5---5---5--5---5------|


  Q     H.
--L\-----------------|-------||
--L\-----------------|-------||
--L\-----------------|-------||
--L\-----------------|-------||
--L\-----------------|-------||
---------------------|-------||



Duration 🏷Legend
---------------
W - whole
H - half
Q - quarter
A chord diagramE MajorE - 8th
S - 16th
T - 32nd
X - 64th
. - note dotted
|-n-|  - n-tuplets


Tablature 🏷Legend
----------------
L - tied note
/ -  slide into from below or out of upwards

Other versions of Holiday

HolidayChords
Holiday - introTabs
Holiday liveTabs

Almost there ...

Sign in to get your own page with links to favourite songs and more. You are just one click away...

Login with Facebook Login with Google