Log in

One click and you are in

Login with Facebook Login with Google

Why sign up and log in

Guitar Tabs Explorer
Disturbed bass tabs for The vengeful one

Bass tabs with lyrics

  • Tuning: Drop B
  • Difficulty: Intermediate
Track 3 from Immortalized  - The Vengeful One


Tuning - Drop B

*Bass comes in @ 28 seconds*

             Intro
E  |--------------------------|
B  |--------------------------| X6
F# |--0--0--0--0--0--0--0--0--|
B  |--------------------------|

E  |-----------------------------------|
B  |-----------------------------------|
F# |--6-6-6-6-6-6-6-6--3-3-3-3---------|
B  |----------------------------5-5-5--|

            Verse - X2
E  |--------------------------|
B  |--------------------------| X6
F# |--0--0--0--0--0--0--0--0--|
B  |--------------------------|

E  |------------------------------------|
B  |------------------------------------|
F# |--6-6-6-6-6-6-6-6--3-3-3-3----------|
B  |----------------------------5-5-5---|


Pre Chorus - No Bass - *Go sleep soundly in your beds tonight*

              Chorus Lead-in
E  |----------------------------------|
B  |----------------------------------|
F# |----------------------------------|
B  |--X-7--7--7-X-7--7--7-10-7-10-12--|

                Chorus
E  |---------------|-------------------|
B  |---------------|-------------------| X3
F# |---------------|-------------------|
B  |--8----5----7--|--7--7---7---7--7--|

E  |------------------------------------|
B  |------------------------------------|
F# |------------------------------------|
B  |--X-10--10--10-10-10--5--5-X-8-8-8--|

E  |---------------|-------------------|
B  |---------------|-------------------|
F# |---------------|-------------------|
B  |--8----5----7--|--7--7---7---7--7--|

E  |-------------------|
B  |-------------------|
F# |-------------------|
B  |--7--7---7---7--7--|

E  |---------------|-------------------|------------------------------------|
B  |---------------|-------------------|------------------------------------|
F# |---------------|-------------------|------------------------------------|
B  |--8----5----7--|--7--7---7---7--7--|--X-10--10--10-10-10--5--5-X-8-8-8--|

            Post Chorus
E  |--------------------------|
B  |--------------------------| X6
F# |--0--0--0--0--0--0--0--0--|
B  |--------------------------|

E  |------------------------------------|
B  ||-----------------------------------|
F# |--6-6-6-6-6-6-6-6--3-3-3-3----------|
B  |----------------------------5-5-5---|

            Verse II - X2
E  |--------------------------|
B  |--------------------------| X6
F# |--0--0--0--0--0--0--0--0--|
B  |--------------------------|

E  |-----------------------------------|
B  |-----------------------------------|
F# |--6-6-6-6-6-6-6-6--3-3-3-3---------|
B  |----------------------------5-5-5--|

Pre Chorus - No Bass - *Go sleep soundly in your beds tonight*

            Chorus Lead-in
E  |----------------------------------|
B  |----------------------------------|
F# |----------------------------------|
B  |--X-7--7--7-X-7--7--7-10-7-10-12--|

               Chorus - X2
E  |---------------|-------------------|
B  |---------------|-------------------| X3
F# |---------------|-------------------|
B  |--8----5----7--|--7--7---7---7--7--|

E  |------------------------------------|
B  |------------------------------------|
F# |------------------------------------|
B  |--X-10--10--10-10-10--5--5-X-8-8-8--|

E  |---------------|-------------------|
B  |---------------|-------------------|
F# |---------------|-------------------|
B  |--8----5----7--|--7--7---7---7--7--|

E  |-------------------|
B  |-------------------|
F# |-------------------|
B  |--7--7---7---7--7--|

E  |---------------|-------------------|------------------------------------|
B  |---------------|-------------------|------------------------------------|
F# |---------------|-------------------|------------------------------------|
B  |--8----5----7--|--7--7---7---7--7--|--X-10--10--10-10-10--5--5-X-8-8-8--|

          Bridge
E  |------------------|
B  |------------------|
F# |------------------|
B  |--0--0----0----0--|

E  |-----------------------------------|---------------------------------|
B  |-----------------------------------|---------------------------------|
F# |--------------5-----------6-5------|---------------------------------|
B  |--3-0-0-0-5-6---0-0-0-5-6-----6-5--|--6-6-6-10-10-10-9-9-9-5-5-5-6\--|

E  |------------------------------------|-----------------------------------|
B  |------------------------------------|-----------------------------------|
F# |---------------5---------------6----|----------5-0-----3-5-3-0-3-0------|
B  |--\3-0-0-0-5-6---0-0-0-0-0-5-6---0--|--0-0-5-6-----0-0-------------3-0--|

E  |-----------------------------------|
B  |-----------------------------------|
F# |--------------5-----------6-5------|
B  |--3-0-0-0-5-6---0-0-0-5-6-----6-5--|

E  |---------------|--------------------|---------------|---------------|
B  |---------------|--------------------|---------------|---------------|
F# |---------------|--------------------|---------------|---------------|
B  |--6-6-6-6-6-6--|-10-10-10-10-10-10--|--9-9-9-9-9-9--|--5-5-5-5-5-5--|

E  |-----------|
B  |-----------|
F# |-----------|
B  |--6-X-X-X--|

E  |-----------------------------------|-----------------------------------|
B  |-----------------------------------|-----------------------------------|
F# |--------------5---------------6----|----------5-0-----3-5-3-0-3-0------|
B  |--3-0-0-0-5-6---0-0-0-0-0-5-6---0--|--0-0-5-6-----0-0-------------3-0--|

E  |-----------------------------------|
B  |-----------------------------------|
F# |--------------5-----------6-5------|
B  |--3-0-0-0-5-6---0-0-0-5-6-----6-5--|

E  |----------------------------------|------------------------------|
B  |----------------------------------|------------------------------|
F# |----------------------------------|------------------------------|
B  |--X-10--10--10-10-10--5--5-5-3-5--|--X-10--10--10-10-10--5--5-8--|

          Chorus III
E  |-------------------------|
B  |-------------------------|
F# |-------------------------|
B  |--7-----7--7---7---7--7--|

E  |---------------|-------------------|
B  |---------------|-------------------| X2
F# |---------------|-------------------|
B  |--8----5----7--|--7--7---7---7--7--|

E  |------------------------------------|
B  |------------------------------------|
F# |------------------------------------|
B  |--X-10--10--10-10-10--5--5-X-8-8-8--|

E  |---------------|-------------------|
B  |---------------|-------------------|
F# |---------------|-------------------|
B  |--8----5----7--|--7--7---7---7--7--|

E  |-------------------|
B  |-------------------|
F# |-------------------|
B  |--7--7---7---7--7--|

E  |---------------|-------------------|------------------------------------|
B  |---------------|-------------------|------------------------------------|
F# |---------------|-------------------|------------------------------------|
B  |--8----5----7--|--7--7---7---7--7--|--X-10--10--10-10-10--5--5-X-8-8-8--|

             Final Chorus
E  |---------------|-------------------|
B  |---------------|-------------------| X3
F# |---------------|-------------------|
B  |--8----5----7--|--7--7---7---7--7--|

E  |------------------------------------|
B  |------------------------------------|
F# |------------------------------------|
B  |--X-10--10--10-10-10--5--5-X-8-8-8--|

E  |----------------|-------------------|
B  |----------------|-------------------|
F# |----------------|-------------------|
B  |---8----5----7--|--7--7---7---7--7--|

E  |-------------------|
B  |-------------------|
F# |-------------------|
B  |--7--7---7---7--7--|

E  |---------------|-------------------|
B  |---------------|-------------------|
F# |---------------|-------------------|
B  |--8----5----7--|--7--7---7---7--7--|

E  |------------------------------------|------------------------------|
B  |------------------------------------|------------------------------|
F# |------------------------------------|------------------------------|
B  |--X-10--10--10-10-10--5--5-X-8-8-8--|--X-10--10--10-10-10--5--5-8--|

             Outro
E  |--------------------------|
B  |--------------------------| X3
F# |--0--0--0--0--0--0--0--0--|
B  |--------------------------|

E  |-----------|
B  |-----------|
F# |--0--0--0--|
B  |-----------|

The Vengeful One bass tab

Disturbed bass tabs for The vengeful one Track 3 from Immortalized - The Vengeful One.

Almost there ...

Sign in to get your own page with links to favourite songs and more. You are just one click away...

Login with Facebook Login with Google