Log in

One click and you are in

Login with Facebook Login with Google

Why sign up and log in

Guitar Tabs Explorer
Disturbed chords for Prayer

Guitar chords

Title:   Prayer

Drop "D" Tuning


Note: This tab is not exact because there sounds like
alot of overdubbing of
guitar parts, but this is close!  I wrote this tab
based on a copyrighted song (that I did not write) and
this tab is for educational purposes (or something
like that)!
Intro

E-----------------------------------------------------------
B-----------------------------------------------------------
G-----------------------------------------------------------
D----12---12---12--13--12--13-----12---12---12--13--12--13--
A----12---12---12--13--12--13-----12---12---12--13--12--13--
D----12---12---12--13--12--13-----12---12---12--13--12--13--

E-----------------------------------------------------------
B-----------------------------------------------------------
G-----------------------------------------------------------
D----12---12---12--12--12--12-----13---13---13--13--12--12--
A----15---15---15--15--15--15-----12---12---12--12--12--12--
D----12---12---12--12--12--12-----12---12---12--12--12--12--

E-----------------------------------------------------------
B-----------------------------------------------------------
G-----------------------------------------------------------
D----12---12---12--13--12--13-----12---12---12--13--12--13--
A----12---12---12--13--12--13-----12---12---12--13--12--13--
D----12---12---12--13--12--13-----12---12---12--13--12--13--

E-----------------------------------------------------------
B-----------------------------------------------------------
G-----------------------------------------------------------
D----12---12---12--12--12--12-----13---13---13--13--10------
A----15---15---15--15--15--15-----12---12---12--12--10------
D----12---12---12--12--12--12-----12---12---12--12--10------

Verse:

E-----------------------------------------------------------
B-----------------------------------------------------------
G-----------------------------------------------------------
D----0-----0----0---1---0---1------0----0----0---1---0---1--
A----0-----0----0---1---0---1------0----0----0---1---0---1--
D----0-----0----0---1---0---1------0----0----0---1---0---1--

E-----------------------------------------------------------
B-----------------------------------------------------------
G-----------------------------------------------------------
D----0-----0----0---0---0---0------1----1----1---1---0---0--
A----3-----3----3---3---3---3------0----0----0---0---0---0--
D----0-----0----0---0---0---0------0----0----0---0---0---0--

E-----------------------------------------------------------
B-----------------------------------------------------------
G-----------------------------------------------------------
D----0-----0----0---1---0---1------0----0----0---1---0---1--
A----0-----0----0---1---0---1------0----0----0---1---0---1--
D----0-----0----0---1---0---1------0----0----0---1---0---1--

E-----------------------------------------------------------
B-----------------------------------------------------------
G----------------------------------------------------5------
D----0-----0----0---0---0---0------1----1----1---1---5------
A----3-----3----3---3---3---3------0----0----0---0---3------
D----0-----0----0---0---0---0------0----0----0---0----------


E--------------------------------------------------------------
B--------------------------------------------------------------
G--------------------------------------------------------------
D----7-----1--1--1--1-----3---8----7-----1--1--1--1-----3---1--
A----7-----1--1--1--1-----3---8----7-----1--1--1--1-----3---1--
D----7-----1--1--1--1-----3---8----7-----1--1--1--1-----3---1--

                                          HOLD
E------------------------------------------------
B------------------------------------------------
G------------------------------------------------
D----7-----1--1--1--1-----3---8----7------3------
A----7-----1--1--1--1-----3---8----7------3------
D----7-----1--1--1--1-----3---8----7------3------


CHORUS (Follow song for strumming):

E---------------------------------------------------
B---------------------------------------------------
G---3--------5----7---------3--------7--7--5--5--3--
D---3--------3----5--3------3--------7--5--5--5--3--
A---1--------3----5--3------1--------5--5--3--3--1--
D---3--------3----5--3------3-----------------------

(LAST TIME)
REPEAT 8's CHORD PATTERN WITH RECORDING
E---------------------------------
B---------------------------------
G---------------------------------
D----8----8--8--8--8-----------0--\
A----8----8--8--8--8-----------0--\
D----8----8--8--8--8-----------0--\
                             (LAST CHORD IN
PROGRESSION)


BREAK:
E---------------------------------------------------------------
B---------------------------------------------------------------
G---------------------------------------------------------------
D---------------------------------------------------------------
A---------------------------------------------------------------
D----2--2--0---2---2--2--0---2---2--2--0---2---2-0-2---2-0-2--3-

E---------------------------------------------------------------
B---------------------------------------------------------------
G---------------------------------------------------------------
D---------------------------------------------------------------
A---------------------------------------------------------------
D----2--2--0---2---2--2--0---2---2--2--0---2---2-2--0--2--3-3-3-

E---------------------------------------------------------------
B---------------------------------------------------------------
G---------------------------------------------------------------
D----2--2--0---2---2--2--0---2---2--2--0---2---2-0-2---2-0-2--3-
A----2--2--0---2---2--2--0---2---2--2--0---2---2-0-2---2-0-2--3-
D----2--2--0---2---2--2--0---2---2--2--0---2---2-0-2---2-0-2--3-

E---------------------------------------------------------------
B---------------------------------------------------------------
G---------------------------------------------------------------
D----2--2--0---2---2--2--0---2---2--2--0---2---2-2--0--2--3-3-3-
A----2--2--0---2---2--2--0---2---2--2--0---2---2-2--0--2--3-3-3-
D----2--2--0---2---2--2--0---2---2--2--0---2---2-2--0--2--3-3-3-

REPEAT CHORUS

Other versions of Prayer

PrayerTabs

Almost there ...

Sign in to get your own page with links to favourite songs and more. You are just one click away...

Login with Facebook Login with Google