Log in

One click and you are in

Login with Facebook Login with Google

Why sign up and log in

Guitar Tabs Explorer
Disturbed tabs for Land of confusion

Guitar tabs

all strings are down 1/2 a step wich you can do by puting a capo on your first
fret and tune regulary (NOT ALL OF THE SOLO IS THERE I DONT KNOW IT ALL)
//= SLIDE UP
INTRO x2 FIRST TIME THROUGH
E--------
B--------
G----2---
D--2---2-
A-0-0-0-0
E--------


REFRAIN x2 FIRST TIME THROUGH
E-------------------------------------
B-------------------------------------
G----------7-7//9-9-------------------
D-7-7//9-9-5-5//7-7-5-5//7-7--7-7//9-9
A-5-5//7-7----------3-3//5-5--5-5//7-7
E-------------------------------------

COROUS x2 ALL
E----------------
B----------------
G-----7-9-----7--
D-7-9-5-7-7-9-5-7
A-5-7-----5-7---5
E----------------


2nd PART TO COUROUS x1 ALL EXEPT THE LAST TIME THROUGH THEN YOU DO IT x8
E----
B----
G-3-4
D-2-2
A----
E----

INTRO TO SOLO (first part) (do first part 1st, 2nd and third part and then end to intro to solo twice)
E------------------
B------------------
G------------------
D--4-6-4-6---6----4
A-4---7---6-7--6-7-
E------------------

1st AND 3rd TIME THROUGH AFTER FIRST PART
E-------
B-------
G-------
D-------
A-6-7-6-
E------7

2nd TIME THROUGH
E-------
B-------
G-------
D------4
A-4-6-7-
E-------

END TO INTRO TO SOLO
E--------
B--------
G--------
D-9-8-6--
A-7-6-4-6
E-7-6---4

LAST TIME THROUGH ADD THIS TO THE END OF THE CHORDS
E--
B--
G--
D--
A-7
E-5

PART OF THE SOLO
E-3-2---2-
B----3-1-3
G---------
D---------
A---------
E---------

Other versions of Land Of Confusion

Land of confusionChords
Land of confusion acousticChords
Land of confusion - introTabs

Almost there ...

Sign in to get your own page with links to favourite songs and more. You are just one click away...

Login with Facebook Login with Google