Log in

One click and you are in

Login with Facebook Login with Google

Why sign up and log in

Guitar Tabs Explorer
Disturbed tabs for Glass shatters

Guitar tabs

Band- Disturbed
Song- Glass Shatters

Tuning- Standard Tuning

Intro
|--------------7-----------------3---|
|--------------7-----------------3---|
|--------------9-----------------5---|
|-7-7--7-8-7-7---9--7-7--7-8-7-7---5-|
|-7-7--7-8-7-7---7--7-7--7-8-7-7---3-|
|-5-5--5-6-5-5---7--5-5--5-6-5-5---3-|


Verse/Palm Mute
|--------------------------|
|--------------------------|
|-7-7-7-7-7-7--8-8-8-8-8-8-|
|-7-7-7-7-7-7--8-8-8-8-8-8-|
|-5-5-5-5-5-5--6-6-6-6-6-6-|
|-5-5-5-5-5-5--6-6-6-6-6-6-|


Chorus
|-5-5-5-5-5-5-5-5--6-6-6-6-6-6-6-6----------|
|-5-5-5-5-5-5-5-5--6-6-6-6-6-6-6-6----------|
|-7-7-7-7-7-7-7-7--8-8-8-8-8-8-8-8----------|
|-7-7-7-7-7-7-7-7--8-8-8-8-8-8-8-8--7-6-7-6-|...Pick Slide after this
|-5-5-5-5-5-5-5-5--6-6-6-6-6-6-6-6--7-6-7-6-|
|-5-5-5-5-5-5-5-5--6-6-6-6-6-6-6-6--5-4-5-4-|

Post-Chorus
|--------------7-----------------3---|
|--------------7-----------------3---|
|--------------9-----------------5---|
|-7-7--7-8-7-7---9--7-7--7-8-7-7---5-|
|-7-7--7-8-7-7---7--7-7--7-8-7-7---3-|
|-5-5--5-6-5-5---7--5-5--5-6-5-5---3-|

|--------------7-----------------9-----|
|--------------7-----------------9-----|
|--------------9-----------------11----|
|-7-7--7-8-7-7---9--7-7--7-8-7-7----11-|
|-7-7--7-8-7-7---7--7-7--7-8-7-7----9--|
|-5-5--5-6-5-5---7--5-5--5-6-5-5----9--|

This is completely tabbed by memory.ENJOY!!!!

Almost there ...

Sign in to get your own page with links to favourite songs and more. You are just one click away...

Login with Facebook Login with Google