Log in

One click and you are in

Login with Facebook Login with Google

Why sign up and log in

Guitar Tabs Explorer
Dispicables chords for Typical highschool song

Typical Highschool Song chords - Dispicables

Dispicables chords for Typical highschool song

Guitar chords

Album:  if i was 80

this is how chris(guitarist) plays it on stage so its pretty right.its
actually a pretty dam good song for a local band.

r-ring out
intro: play clean

e/-----------------------------------------------
B/-----------------------------------------------
G/------------------------------5-----------7----
D/------5-----------2-------------5-----------7--
A/--------5-----------2---3-3-3-----3-5-5-5-----5
E/3-3-3-----3-0-0-0-----0------------------------

e/------------------------------------
B/------------------------------------
G/------------------------------5---7r
D/------5-----------2-------------5-7r
A/--------5-----------2---3-3-3-----5r
E/3-3-3-----3-0-0-0-----0-------------


verse: play distorted

e/--------------------------------
B/--------------------------------
G/----------------2-2-2-2-2-2-2-2-
D/5-5-5-5-5-5-5-5-2-2-2-2-2-2-2-2-
A/5-5-5-5-5-5-5-5-0-0-0-0-0-0-0-0-
E/3-3-3-3-3-3-3-3-----------------

e/--------------------------------
B/--------------------------------
G/5-5-5-5-5-5-5-5-7-7-7-7-7-7-7-7-
D/5-5-5-5-5-5-5-5-7-7-7-7-7-7-7-7-
A/3-3-3-3-3-3-3-3-5-5-5-5-5-5-5-5-
E/--------------------------------

chorus: played just like the verse but quarter notes instead           
of 16th notes.

e/----------------------------------
B/----------------------------------
G/----------------------------------
D/5--5--5--5--5--5--2--2--2--2--2--2
A/5--5--5--5--5--5--2--2--2--2--2--2
E/3--3--3--3--3--3--0--0--0--0--0--0

e/----------------------------------
B/----------------------------------
G/5--5--5--5--5--5--7--7--7--7--7--7
D/5--5--5--5--5--5--7--7--7--7--7--7
A/3--3--3--3--3--3--5--5--5--5--5--5
E/----------------------------------


bridge: distortion(rhythm is just like chorus)

e/----------------------------------
B/----------------------------------
G/9--9--9--9--9--9--9--9--9--9--9--9
D/9--9--9--9--9--9--9--9--9--9--9--9
A/7--7--7--7--7--7--7--7--7--7--7--7
E/----------------------------------

e/----------------------------------
B/----------------------------------
G/5--5--5--5--5--5--5--5--5--5--5--5
D/5--5--5--5--5--5--5--5--5--5--5--5
A/3--3--3--3--3--3--3--3--3--3--3--3
E/----------------------------------

e/----------------------------------
B/----------------------------------
G/----------------------------------
D/5--5--5--5--5--5--5--5--5--5--5--5
A/5--5--5--5--5--5--5--5--5--5--5--5
E/3--3--3--3--3--3--3--3--3--3--3--3

e/----------------------------------
B/----------------------------------
G/7--7--7--7--7--7--7--7--7--7--7--7
D/7--7--7--7--7--7--7--7--7--7--7--7
A/5--5--5--5--5--5--5--5--5--5--5--5
E/----------------------------------

this is how it goes:


intro 1x (clean)

verse 10x (distortion)

chorus 2x (distortion)

verse 4x (distortion)

chorus 2x (distortion)

bridge 2x (distortion)

chorus 4x (distortion)

Almost there ...

Sign in to get your own page with links to favourite songs and more. You are just one click away...

Login with Facebook Login with Google