Log in

One click and you are in

Login with Facebook Login with Google

Why sign up and log in

Guitar Tabs Explorer
Dispatch tabs for Two coins

Guitar tabs

Song Title: Two Coins
Lyrics: Pete Heimbold
CD: Bang Bang
Tabbed: Pat Moynihan (Pig)
Key: A chord diagramG+G major

             Dmaj  Cmaj  Gmaj
E---------------x-----x-----x-------------------------------------
B---------------7-----5-----x--------------------------------------
G---4h5---------7-----5-----4---0---3p0------------------------
D-5-------------7-----5-----5---------------3p0-3--------------
A---------7--5--------3-----5-------------------------------------
E------------------------------3-------------------------------------
*Intro/verse/chorus riff

  Dmaj CMaj
E--2----0------------------------------------------------------------
B--3----1------------------------------------------------------------
G--2----2------------------------------------------------------------
D--0----0------------------------------------------------------------
A--------3------------------------------------------------------------
E----------------------------------------------------------------------
*Interlude riff -- This is simplified.  It appears that Pete plays about 4
counts of A chord diagramD MajorD then 4 of C.  Then repeats once.  He adds neighboring tones at
his own leisure to create some ornamentation but it seems to change with
each
performance.

-This tab is my own interpretation. Any Questions pmoy_@hotmail.com

_________________________________________________________________

Almost there ...

Sign in to get your own page with links to favourite songs and more. You are just one click away...

Login with Facebook Login with Google