Log in

One click and you are in

Login with Facebook Login with Google

Why sign up and log in

Guitar Tabs Explorer
Dispatch tabs for Born normal

Guitar tabs

Tabbed By: Maximus Klein

Tuning: Standard


Intro and Chorus: Em, Am, A chord diagramC minorCm

e------0------0--0--0-----0----3-3--3|---------------------
B------0------0--0--0-----0----3-3--3|---------------------
G------0------0--0--0-0h2-2--0h5-5--5|---------------------
D--0h2-2--0h2-2--2--2-0h2-2--0h5-5--5|-x3------------------
A--0h2-2--0h2-2--2--2-0---0--0h3-3--3|---------------------
E--0---0--0---0--0--0----------------|---------------------

Then

	A chord diagramA augmentedA		A chord diagramC majorC
e------0--0h3-3--3-3--3-3-3--3-3--3-33333------------------
B------0--0h3-3--3-3--3-3-3--3-3--3-33333------------------
G--0h2-2--0h5-5--5-5--5-5-5--5-5--5-55555------------------
D--0h2-2--0h5-5--5-5--5-5-5--5-5--5-55555------------------
A--0---0--0h3-3--3-3--3-3-3--3-3--3-33333------------------
E----------------------------------------------------------


Verse: “Born a normal child…” and “What punishment is this”
Em, Am, A chord diagramC minorCm

e------0------0--0--0-----0----3-3--3|---------------------
B------0------0--0--0-----0----3-3--3|---------------------
G------0------0--0--0-0h2-2--0h5-5--5|---------------------
D--0h2-2--0h2-2--2--2-0h2-2--0h5-5--5|-x3------------------
A--0h2-2--0h2-2--2--2-0---0--0h3-3--3|---------------------
E--0---0--0---0--0--0----------------|---------------------

Then: Em, Am, G, A chord diagramB minorBm
				   “Can you hear us…”
e------0------0--0--0-|-3-3-x-2-2--------------------------
B------0------0--0--0-|-3-3-x-3-3--------------------------
G------0------0--0--0-|-0-0-x-4-4--------------------------
D--0h2-2--0h2-2--2--2-|-0-0-x-4-4--------------------------
A--0h2-2--0h2-2--2--2-|-2-2-x-2-2--------------------------
E--0---0--0---0--0--0-|-3-3-x------------------------------

Refrain: “Callin’ back to my friend…”

e-----------------------------------------2-2-x-5-5--------
B-----------------------------------------2-2-x-7-7--------
G-----------------------------------------4-4-x-7-7--------
D-----------------------------------------4-4-x-7-7--------
A--3------------3------------3------------2-2-x-5-5--------
E----0--1--2--3---0--1--2--3---0--1--2—3-------------------





Then: “Wanted to scream but he could not cry”
Am, Bm, A chord diagramD MajorD

e--0-0-0-0--2-2-5-5-|----------|--00000--------------------
B--0-0-0-0--2-2-7-7-|----------|--00000--------------------
G--2-2-2-2--4-4-7-7-|----------|--22222--------------------
D--2-2-2-2--4-4-7-7-|--x3-Then-|--22222--------------------
A--0—0-0-0--2-2-5-5-|----------|--00000--------------------
E-------------------|----------|---------------------------

(Chorus)

(Verse)

(Refrain)

(Chorus)


Bridge: “Yes I hear you…” G, D, Em, A chord diagramC minorCm

e--3-3-3-3-3-3-3-3-0-0-0-0---------------------------------
B--3-3-3-3-2-2-2-2-0-0-0-0---------------------------------
G--0-0-0-0-3-3-3-3-0-0-0-0-5-5-5-5-------------------------
D--0-0-0-0-0-0-0-0-2-2-2-2-5-5-5-5-------------------------
A--2-2-2-2---------2-2-2-2-3-3-3-3-------------------------
E--3-3-3-3---------0-0-0-0---------------------------------

(Refrain part 2)

(Chorus)

(Bridge)

Almost there ...

Sign in to get your own page with links to favourite songs and more. You are just one click away...

Login with Facebook Login with Google