Log in

One click and you are in

Login with Facebook Login with Google

Why sign up and log in

Guitar Tabs Explorer
The Dismemberment Plan tabs for You are invited

You Are Invited tab by The Dismemberment Plan

The Dismemberment Plan tabs for You are invited

Guitar tabs

0:47
1st and 3rd Chorus:

e---------0--------------0------------|
b-------4--------------4-----4--------|
g-----4--------------4---------4-\----|
d---2--------------2------------------|
a-------------------------------------|
e-------------------------------------|

(continued)
e---------0--------------0-------------------0-----|
b-------2--------------2-----2-------------4-------|
g-----2--------------2---------2-/-------4---------|
d---0--------------0-------------------2-----------|
a--------------------------------------------------|
e--------------------------------------------------|

(continued)
e---------0-----------------0----------------------|
b-------4---4-------------7---7--------------------|
g-----4-------4-/-------7-------7----7-------------|
d---2-----------------0----------------------------|
a--------------------------------------------------|
e--------------------------------------------------|

If you have any questions or comments e-mail me at:
cdunnetlrx@yahoo.com

Almost there ...

Sign in to get your own page with links to favourite songs and more. You are just one click away...

Login with Facebook Login with Google