Log in

One click and you are in

Login with Facebook Login with Google

Why sign up and log in

Guitar Tabs Explorer
The Dismemberment Plan tabs for Time bomb

Guitar tabs

Time Bomb
Dismemberment Plan
Change
Intro / Verse (this is pretty much the whole song)

Standard Tuning

e------------------------------|
B------------------------------|
G------------------------------|
D---5-5-5-5-5-5-5-5-5-5-5-5-5--|   Repeat this as many times as you like
A---7-7-7-7-7-7-7-7-7-7-7-7-7--|
E-------------------0-0-0-0-0--|


add this after a while
e-------------
B-------------
G-------------
D-4-4-4-4-4-4-
A-5-5-5-5-5-5-
E-------------


More This

e------------------------------|
B------------------------------|
G------------------------------|
D---5-5-5-5-5-5-5-5-5-5-5-5-5--|
A---7-7-7-7-7-7-7-7-7-7-7-7-7--|
E-------------------0-0-0-0-0--|

e------------------------------------------2-2-2-2-2-2-2-2-----
B------------------------------------------2-2-2-2-2-2-2-2-----
G-------------0-0-0-0-0-0-2-2-2-2-2-2-2-2--4-4-4-4-4-4-4-4-----
D-4-4-4-4-4-4-2-2-2-2-2-2-2-2-2-2-2-2-2-2--4-4-4-4-4-4-4-4-----
A-5-5-5-5-5-5-3-3-3-3-3-3-0-0-0-0-0-0-0-0--2-2-2-2-2-2-2-2-----
E-------------------------0-0-0-0-0-0-0-0--2-2-2-2-2-2-2-2-----

e--3-3-3-3-3-3-3-3-3-3-3-3-3-3-3-3-----
B--3-3-3-3-3-3-3-3-3-3-3-3-3-3-3-3-----
G--5-5-5-5-5-5-5-5-5-5-5-5-5-5-5-5-----
D--5-5-5-5-5-5-5-5-5-5-5-5-5-5-5-5-----
A--3-3-3-3-3-3-3-3-3-3-3-3-3-3-3-3-----
E--3-3-3-3-3-3-3-3-3-3-3-3-3-3-3-3-----


And do the whole thing over again

thats pretty much it! listen to the song for timing and stuff, i just
estimated the number of strokes. good luck!
ⓘ Guitar tab for 'Time Bomb' by The Dismemberment Plan, artist. The Dismemberment Plan was born in 1993.

Almost there ...

Sign in to get your own page with links to favourite songs and more. You are just one click away...

Login with Facebook Login with Google