Log in

One click and you are in

Login with Facebook Login with Google

Why sign up and log in

Guitar Tabs Explorer
Dishwalla tabs for Counting blue cars

Guitar tabs with lyrics

Title : Counting Blue Cars
        Artist : Dishwalla
         Album : Pet Your Friends
Transcribed by : Josh Dechant<j_dechant@hotmail.com>
🏷Legend
------

 h  = hammer-on
 p  = pull-off
 b  = bend** the number after b is what you bend to
 r  = bend release
 /  = slide up/down
<5> = natural harmonic
 ~  = vibrato

*******Please Note: This tab is only for the lead guitar.
If you want the rythm guitar try the chord file!!********

 Intro:

|-----------0-------------------------------0---------------------|
|-------------0-------------------------------0---0-----0-0-0-0-0-|
|-4-4-4-4-4-------/9----------------7---7-------7---7--/7-7/9-9-9-|
|-4-4-4-4-4-------/9-9-9-9-9-9-9-9--7-7---7-----------------------|
|-2-2-2-2-2-------/7-7-7-7-7-7-7-7--5-----------------------------|
|-----------------------------------------------------------------|


                                   let ring...................|

|---------0-----------------------------------0----------------------------|
|-----------0-----------------------------------0---0---0-----0-0-0-0-0----|
|-4-4-4-4-----4-4---/9----------------7---7-------7---7---7--/7-7/9-9-9--4-|
|-4-4-4-4-----4-4---/9-9-9-9-9-9-9-9--7-7---7----------------------------4-|
|-2-2-2-2-----2-2---/7-7-7-7-7-7-7-7--5----------------------------------2-|
|--------------------------------------------------------------------------|


 Verse 1:

|------0-------------------------0------------------------0----------------|
|--------0-------------------------0---0---0-0-0-0-0----0---0-----------7--|
|--4-4------9-----9---9--7---7-------7---7---7-7/9-9--4--------9---9-9--7--|
|--4-4------9---9---9----7-7---7----------------------4--------9-9-9-9--5--|
|--2-2------7-7----------5----------------------------2--------7-7---------|
|--------------------------------------------------------------------------|


 Chorus:

|-------------------------------------------------------------------------|
|-------------------------------------------------------------------------|
|--7-7-7-7-7-7-7-7---/9-9-9-9-9-9-9-9---/12-12-12-12-12-12-12-12-12-12-12-|
|--7-7-7-7-7-7-7-7---/9-9-9-9-9-9-9-9---/10-10-10-10-10-10-10-10-10-10-10-|
|--5-5-5-5-5-5-5-5---/7-7-7-7-7-7-7-7---/10-10-10-10-10-10-10-10-10-10-10-|
|-------------------------------------------------------------------------|


                         Verse 2:

|-----------------------|--------------------------------------------|-------0---|
|-----------------------|--------------------------------------------|-----0---0-|
|12-12-12-12-12\7--4----|----/7-9-7-7b8--r-b8-r(7)---/5~------2-<0>--|-4-4-------|
|10-10-10-10-10\7--4----|--------------------------------------------|-4-4-------|
|10-10-10-10-10\5--2----|--------------------------------------------|-2-2-------|
|-----------------------|--------------------------------------------|-----------|




|-------------------------0--------------------------0-------------------------|
|---------------------------0---0---0-0-0-0-0-0----0---0-----------------------|
|---/9-----9---9--7---7-------7---7---7-7/9-9-9--4--------9-9---9--7-----------|
|---/9---9---9----7-7---7------------------------4--------9---9----7-----------|
|---/7-7----------5------------------------------2--------7--------5-----------|
|------------------------------------------------------------------------------|
                                                              repeat chorus 2x


 Solo:

|-----------------------------------------------------------|
|------12---10~-----------12---10~---------12---10~---------|
|--7-7--7-7-----11b12--7-7--7-7-----11--7-7--7-7-----11b12--|
|-----------------------------------------------------------|
|-----------------------------------------------------------|
|-----------------------------------------------------------|




|-------------------------------------------------------------------------------|
|-----------------------------------12---10~-------------------12---10~------12-|
|-r(11)--9----------------------7-7--7-7-----11h12p11--\9--7-7--7-7------7-7--7-|
|----------11b12--r(11)--9--\7--------------------------------------------------|
|-------------------------------------------------------------------------------|
|-------------------------------------------------------------------------------|


                                                    Verse 3:

|------------------------------------------------|----------------------------|
|---10~------------------------------------------|----------------------------|
|-7-----11b12--r(11)--9--------------------------|--------------------5~~~~~~-|
|-----------------------11b12--r-b1-r(11)--9~----|----------------------------|
|------------------------------------------------|----------------------------|
|------------------------------------------------|----------------------------|


                                    Outro:

|-----------------------------------|-------------------------------------|
|-----------------------------------|--------12---10~-----12---10~-----12-|
|-----------------------------------|----7-7--7-7-----7-7--7-7-----7-7--7-|
|-----------------------------------|-------------------------------------|
|-----------------------------------|-------------------------------------|
|-----------------------------------|-------------------------------------|
 repeat chorus 2x



|-----------------------------------------------------------------------------|
|--10~------------------------------------------12---10-10-10-10-10-10-10-----|
|7------11b12--r(11)--9---------------------7-7--7-7-----7--------7-------7-7-|
|-----------------------11b12--r(11)--9--\7-----------------------------------|
|-----------------------------------------------------------------------------|
|-----------------------------------------------------------------------------|




|----------------------------------------------------------------------------------|
|-12---10-10-10-10-10-10-10-----12---10---10-10-10-10-10-10--9-----9--9-----9--9---|
|--7-7-----7--------7-------7-7--7-7----7--7--------7-------11b13----11b13----11b13|
|----------------------------------------------------------------------------------|
|----------------------------------------------------------------------------------|
|----------------------------------------------------------------------------------|




|------------------------------------------------------------------------------|
|-------------12---10-10-10-10-10-10-10-----12---10-10-10-10-10-10-10-10-10-10-|
|--r(11)--7-7--7-7-----7--------7-------7-7--7-7-----7--------7--------7-------|
|------------------------------------------------------------------------------|
|------------------------------------------------------------------------------|
|------------------------------------------------------------------------------|


                                 keep doing this bend while fading out

|----------------------------------------|
|-10-10-10-10-10-10-10-10-10-10----------|
|--7--------7--------7-------------------|
|-------------------------------11b12--r-|
|----------------------------------------|
|----------------------------------------|


Questions or comments email to j_dechant@hotmail.com
Check out my guitar archive at
http://www.crosswinds.net/philadelphia/~jdechant/index.html

--====================987654321_0==_

--====================987654321_0==_--

Other versions of Counting Blue Cars

Counting blue carsChords

Almost there ...

Sign in to get your own page with links to favourite songs and more. You are just one click away...

Login with Facebook Login with Google