Log in

One click and you are in

Login with Facebook Login with Google

Why sign up and log in

Guitar Tabs Explorer
Dire Straits bass tabs for Walk of life

Bass tabs

Dire Straits - "Walk of Life" - Bass Tab


Intro:

|---------|---------|---------|---------|
|---------|---------|---------|---------|
|-7-------|-------4-|---------|---------|
|-------4-|-5-------|-7-----4-|-5---7---|
 1 2 3 4  1 2 3 4  1 2 3 4  1 2 3 4

Interlude Riff:

|----------------|-----------------|-----------------|
|*---------------|-----------------|-----------------|
|*-------------7-|-------7-------7-|-------9-------9-|
|--0-7-0---0-7---|-5---5---5---5---|-7---7---7---7---|
  1 2 3 & a 4 &  1 & a 2 3 & a 4  1 & a 2 3 & a 4

|------------------|
|-----------------*|
|-------7---------*|
|-5---5---7-5-4-2--|
 1 & a 2 3 & 4 &


Verse:
    (x3)
|-----------|-----------------|
|*---------*|-----------------|
|*---------*|-----------------|
|--0-7-0-7--|-0-7---7-7-0-2-4-|
  1 2 3 4  1 2 & a 3 & 4 &


Chorus:

|-----------------|-------------------|-------------|---------|
|-----------------|-------------------|-------------|---------|
|-------7-------7-|-------------------|-----------7-|-----7---|
|-5---5---5---5---|-0---0-7-0---0-2-4-|-5-0-5---5---|-0-------|
 1 & a 2 3 & a 4  1 & a 2 3 & a 4 &  1 2 3 & a 4  1 2 3 4

|-------------------|-----------------|-------------------|
|-------------------|-----------------|-------------------|
|-------------------|---------------7-|-------------------|
|-0---0-4-5-7---7-7-|-0---0-7-5---5---|-0---0-4-5-7---7-7-|
 1 & a 2 & 3 & a 4  1 & a 2 3 & a 4  1 & a 2 & 3 & a 4

|-----------------|
|-----------------|
|-------7---------|
|-5---5---7-5-4-2-|
 1 & a 2 3 & 4 &

By: Johari Taylor
E-mail: viking@powerup.com.au

Almost there ...

Sign in to get your own page with links to favourite songs and more. You are just one click away...

Login with Facebook Login with Google