Log in

One click and you are in

Login with Facebook Login with Google

Why sign up and log in

Guitar Tabs Explorer
Dire Straits tabs for Brothers in arms (Ver. 2)

Guitar tabs with lyrics

Briothers in arms "acoustic"


                                                                   Mark KNOPFLER
Mark KNOPFLER (Capo 4)

             ^    T                      >                   ^    T
     Q       Q    H            H         H           Q       Q    H
A chord diagramE MajorE||-------12--------------|---------------------|-------12--------------|
A chord diagramBB||-------12--------------|---------------------|-------12--------------|
A chord diagramG+G||-------12--------------|---------------------|-------12--------------|
A chord diagramD MajorD||---------------2---------|---------------------|---------------2---------|
A chord diagramA augmentedA||---------------3p--------|--0h--------3--------|---------------3p--------|
A chord diagramE MajorE||--0----------------------|---------------------|--0----------------------|


            >                                                     >
  H         A chord diagramE MajorE   A chord diagramE MajorE  A chord diagramE MajorE  S  S    Q    A chord diagramE MajorE  S  S H            H         Q.     A chord diagramE MajorE
---------------------------|-------------------------|----------------------|
---------------------------|-------------------------|----------------------|
---------------------------|-------------------------|----------------------|
-------------------2--4p-2-|----------2h-4-2---------|-------------------4--|
--0h--------3--/2----------|---------------3p--------|--0h--------3---------|
---------------------------|--0----L-----------------|----------------------|


   Q     A chord diagramE MajorE  S  S S  S A chord diagramE MajorE  A chord diagramE MajorE  S S    W
--------------------------------|-------------------|
------------------------------0-|-------------------|
----------------------------0---|--2----------------|
--/5----/7--5p-4-0h-2-2--L------|--2----------------|
-----------------3--------------|--0----------------|
---0----------------------------|-------------------|

   A chord diagramE MajorE  A chord diagramE MajorE  A chord diagramE MajorE  S S S  S  A chord diagramE MajorE  Q       H        Q     Q       Q    A chord diagramE MajorE  S S H
------------------------------|----------------------|-----------------------|
------------------------------|----------------------|-----------------------|
--/4--2--0--------------------|-----------0----------|-----------------------|
------------4-2-0h-2h-4--2----|-----------------4----|--2----L----2-2--------|
----------------3-------------|--0--------3s----5----|----------2---3--------|
---0--------------------------|----------------------|--0----L---------------|


                              NH    NH    NH
  W                   Q       A chord diagramE MajorE     A chord diagramE MajorE     H
-------------------|-------------------12--------|
-------------------|-------------12--------------|
-------------------|-------12--------------------|
-------------------|-------------------------------|
--0----------------|-------------------------------|
-------------------|--0----------------------------|


     NH
     Q.     A chord diagramE MajorE   A chord diagramE MajorE  A chord diagramE MajorE   A chord diagramE MajorE  A chord diagramE MajorE     A chord diagramE MajorE  A chord diagramE MajorE  A chord diagramE MajorE  A chord diagramE MajorE  A chord diagramE MajorE  A chord diagramE MajorE  A chord diagramE MajorE  A chord diagramE MajorE
---L--------------------0--|--------------------------|
-------------------0h--3-----|-----------3--------3-----|
------------0----------------|--------0--------2-----2--|
---------------/5------------|-----2--------0-----------|
-----------------------------|--3-----------------------|
-----------------------------|--------------------------|


              |----3----|
  A chord diagramE MajorE  A chord diagramE MajorE  A chord diagramE MajorE  A chord diagramE MajorE  Q    Q    Q       A chord diagramE MajorE  A chord diagramE MajorE  A chord diagramE MajorE  A chord diagramE MajorE  A chord diagramE MajorE  A chord diagramE MajorE  A chord diagramE MajorE  A chord diagramE MajorE
-----------------------------|--------------------------|
--------3----------0----3----|--0--------0--1--------1--|
-----------2--2--------------|--------0-----------0-----|
-----0--------0--------------|-----0-----------0--------|
-----------------------------|--------------------------|
--2-----------2--------------|--3-----------3-----------|


  A chord diagramE MajorE  A chord diagramE MajorE  A chord diagramE MajorE  A chord diagramE MajorE  A chord diagramE MajorE  A chord diagramE MajorE  A chord diagramE MajorE  A chord diagramE MajorE     A chord diagramE MajorE  A chord diagramE MajorE  A chord diagramE MajorE  A chord diagramE MajorE  A chord diagramE MajorE  A chord diagramE MajorE  A chord diagramE MajorE  A chord diagramE MajorE
-----------------------0--|--------------------------|
--3--------3--3--3--3-----|-----------0-----------0--|
--------0-----2-----------|--------0-----------4-----|
-----0--------------------|-----2-----------4--------|
--------------------------|--------------2-----------|
--3-----------2-----------|--0-----------------------|


              |----3----|
  A chord diagramE MajorE  A chord diagramE MajorE  A chord diagramE MajorE  A chord diagramE MajorE  Q    Q    Q       A chord diagramE MajorE  A chord diagramE MajorE  A chord diagramE MajorE  A chord diagramE MajorE  A chord diagramE MajorE  A chord diagramE MajorE  A chord diagramE MajorE  A chord diagramE MajorE
-----------------------------|--0-----------0-----------|
-----------0------------3----|-----------1--------------|
--------4-----4----5---------|--------0--------------0--|
-----4-----------------------|-----2--------------2-----|
--2-----------2--------------|--3--------------3--------|
-----------------------------|--------------------------|


  A chord diagramE MajorE  A chord diagramE MajorE  A chord diagramE MajorE  A chord diagramE MajorE  A chord diagramE MajorE  A chord diagramE MajorE  A chord diagramE MajorE  A chord diagramE MajorE     A chord diagramE MajorE  A chord diagramE MajorE  A chord diagramE MajorE  A chord diagramE MajorE  A chord diagramE MajorE  A chord diagramE MajorE  A chord diagramE MajorE  A chord diagramE MajorE
-----------------------0--|--------------------------|
-----------3--3--3--3-----|-----------3-----------3--|
--2-----------2-----------|--------0-----------4-----|
--5-----5-----4-----------|-----2-----------4--------|
--5--5--------5-----------|--------------2-----------|
--------------------------|--0-----------------------|


  A chord diagramE MajorE  A chord diagramE MajorE  A chord diagramE MajorE  A chord diagramE MajorE  A chord diagramE MajorE   A chord diagramE MajorE  A chord diagramE MajorE   A chord diagramE MajorE     A chord diagramE MajorE  A chord diagramE MajorE  A chord diagramE MajorE  A chord diagramE MajorE  A chord diagramE MajorE  A chord diagramE MajorE  A chord diagramE MajorE  A chord diagramE MajorE
----------------------------|--0-----------0-----------|
-----------3--3p--0--3p--0--|-----------1--------------|
--------4-----4-------------|--------0--------------0--|
-----4----------------------|-----2--------------2-----|
--2-----------2-------------|--3--------------3--------|
----------------------------|--------------------------|


              |----3----|
  A chord diagramE MajorE  A chord diagramE MajorE  A chord diagramE MajorE  A chord diagramE MajorE  Q    Q    Q       A chord diagramE MajorE  S S A chord diagramE MajorE   A chord diagramE MajorE  S E.  A chord diagramE MajorE   A chord diagramE MajorE
-----------------------------|-----------------------------|
-------------------0----3----|--0---------------1---Lp--0--|
--2--------2--2--------------|-------2-Lp--0---------------|
--5-----5-----0--------------|-----2----------2------------|
--5--5-----------------------|----------------3------------|
--------------2--------------|--0--------------------------|


  H        Q.     S  S     A chord diagramE MajorE   A chord diagramE MajorE  A chord diagramE MajorE  S  S S  S A chord diagramE MajorE   Q
------------------------|---------------------------------|
------------------------|---------------------------------|
--2---------------------|---------------------------------|
--0---------------5p-4h-|--5s--7--5--4s-2-0h-2-2---L------|
------------------------|-----------------3-------(3)p----|
-----------2------------|--0------------------------------|


  H         Q    Q        A chord diagramE MajorE  A chord diagramE MajorE  S S  S S S  S  A chord diagramE MajorE  A chord diagramE MajorE  S S    W
-----------------------|---------------------------------|-------------------|
-----------------------|-------------------------------0-|-------------------|
-----------------2p----|--L--0----2p-0---------------0---|--2----------------|
-----------------------|--------4------4-2p-0h-2--L------|--2----------------|
--0h--------3----------|-----------------3---------------|--0----------------|
-----------------------|--0------------------------------|-------------------|


  H        Q.     A chord diagramE MajorE     Q     A chord diagramE MajorE  A chord diagramE MajorE  A chord diagramE MajorE  A chord diagramE MajorE   A chord diagramE MajorE  A chord diagramE MajorE     A chord diagramE MajorE  A chord diagramE MajorE  A chord diagramE MajorE  A chord diagramE MajorE  A chord diagramE MajorE  A chord diagramE MajorE  A chord diagramE MajorE  S  S
---------------------|------------------------0--|----------------------------|
---------------------|-----------------0h--3-----|-----------3--------3-------|
---------------------|-----------0---------------|--------0--------2-----2p-0-|
--2--------2------2--|--2----/5-----5------------|-----2--------0--------0----|
--2--------2------2--|--2------------------------|--3-------------------------|
--0--------0------0--|--0------------------------|----------------------------|


  S  E.  A chord diagramE MajorE  A chord diagramE MajorE  A chord diagramE MajorE  A chord diagramE MajorE   A chord diagramE MajorE  S  S    A chord diagramE MajorE  A chord diagramE MajorE  A chord diagramE MajorE  A chord diagramE MajorE  A chord diagramE MajorE  A chord diagramE MajorE  A chord diagramE MajorE  A chord diagramE MajorE
------------------------------|--------------------------|
------------------0h--3--3p-0-|--0--------0--1--------1--|
--0h-2---L--2--2--------------|--------0-----------0-----|
--0---------------------------|-----0-----------0--------|
------------------------------|--------------------------|
--2------------2--------------|--3-----------3-----------|


  A chord diagramE MajorE  A chord diagramE MajorE  A chord diagramE MajorE  A chord diagramE MajorE  A chord diagramE MajorE  A chord diagramE MajorE  A chord diagramE MajorE  A chord diagramE MajorE     A chord diagramE MajorE  A chord diagramE MajorE  A chord diagramE MajorE  A chord diagramE MajorE  A chord diagramE MajorE  A chord diagramE MajorE  S  S  S  S
-----------------------0--|-------------------------------|
--3--------3--3--3--3-----|-----------0--------3p-2p-0h-2-|
--------0-----2-----------|--------0----------------------|
-----0--------------------|-----2-----------4-------------|
--------------------------|--------------2----------------|
--3-----------2-----------|--0----------------------------|


              |----3----|
  A chord diagramE MajorE  A chord diagramE MajorE  A chord diagramE MajorE  A chord diagramE MajorE  Q    Q    Q       A chord diagramE MajorE  A chord diagramE MajorE  A chord diagramE MajorE  A chord diagramE MajorE  A chord diagramE MajorE  A chord diagramE MajorE  A chord diagramE MajorE  A chord diagramE MajorE
-----------------------------|--0-----------0-----------|
------------------------3----|-----------1--------------|
-----------4--4----5---------|--------0--------------0--|
--4-----4-----4--------------|-----2--------------2-----|
-----2--------2--------------|--3--------------3--------|
-----------------------------|--------------------------|


  A chord diagramE MajorE  A chord diagramE MajorE  A chord diagramE MajorE  A chord diagramE MajorE  A chord diagramE MajorE  A chord diagramE MajorE  A chord diagramE MajorE   A chord diagramE MajorE     A chord diagramE MajorE  A chord diagramE MajorE  A chord diagramE MajorE  A chord diagramE MajorE  A chord diagramE MajorE  A chord diagramE MajorE  A chord diagramE MajorE  A chord diagramE MajorE
-----------------0--2h--3--|--0--------2--------------|
-----------3--3-----3------|--------0--------------3--|
--2-----------2------------|--------------------4-----|
--5-----5-----0------------|-----2-----------4--------|
--5--5---------------------|--------------2-----------|
--------------2------------|--0-----------------------|


              |----3----|
  A chord diagramE MajorE  A chord diagramE MajorE  A chord diagramE MajorE  A chord diagramE MajorE  Q    Q    Q       A chord diagramE MajorE  A chord diagramE MajorE  A chord diagramE MajorE  A chord diagramE MajorE  A chord diagramE MajorE  A chord diagramE MajorE  A chord diagramE MajorE  A chord diagramE MajorE
-----------------------------|--0-----------0-----------|
-----------0------------3----|-----------1--------------|
--------4-----4----5---------|--------0--------------0--|
-----4--------4--------------|-----2--------------2-----|
--2-----------2--------------|--3--------------3--------|
-----------------------------|--------------------------|


              |----3----|
  A chord diagramE MajorE  A chord diagramE MajorE  A chord diagramE MajorE  A chord diagramE MajorE  Q    Q    Q       A chord diagramE MajorE  S S A chord diagramE MajorE   A chord diagramE MajorE  S E.  A chord diagramE MajorE   A chord diagramE MajorE
-----------------------------|-----------------------------|
-------------------0----3----|--0---------------1---Lp--0--|
--2--------2--2--------------|-------2-Lp--0---------------|
--5-----5-----5--------------|-----2----------2------------|
--5--5--------5--------------|----------------3------------|
-----------------------------|--0--------------------------|


                                 |--3--|
  Q.     A chord diagramE MajorE  A chord diagramE MajorE  A chord diagramE MajorE  A chord diagramE MajorE  A chord diagramE MajorE     A chord diagramE MajorE  A chord diagramE MajorE  A chord diagramE MajorE  A chord diagramE MajorE  A chord diagramE MajorE  S S  S  S A chord diagramE MajorE  A chord diagramE MajorE
------------------------|--0------------------------------|
---------------------0--|--0-----3--0---------------------|
--2------2--------2-----|--0-----------0------------------|
--0------------0--------|-----2-----------4-2p-0h-2-L--2--|
------------------------|-----------------3---------------|
------------2-----------|--0------------------------------|


  H        Q.     A chord diagramE MajorE     Q    A chord diagramE MajorE  S S S  S  A chord diagramE MajorE  A chord diagramE MajorE  S S    W
---------------------|------------------------------|-------------------|
---------------------|----------------------------0-|-------------------|
---------------------|-------2--0---------------0---|--2----------------|
--2---------------4--|--5---------4-2p-0h-2--L------|--2----------------|
--0--------3---------|--------------3---------------|--0----------------|
---------------------|--0---------------------------|-------------------|


  H        Q.     A chord diagramE MajorE     A chord diagramE MajorE  A chord diagramE MajorE  A chord diagramE MajorE  A chord diagramE MajorE  A chord diagramE MajorE  A chord diagramE MajorE  A chord diagramE MajorE  A chord diagramE MajorE     A chord diagramE MajorE  A chord diagramE MajorE  A chord diagramE MajorE  A chord diagramE MajorE  A chord diagramE MajorE   A chord diagramE MajorE  A chord diagramE MajorE  A chord diagramE MajorE
---------------------|--------------------------|---------------------------|
---------------------|-----0--L--------0--------|--0---------------------0--|
---------------------|-----------0--2-----0--2--|--------0------------0-----|
--2--------2------2--|--2-----------0-----------|-----2--------2h--4--------|
--2--------2------2--|--2-----------------------|-----------2---------------|
--0--------0------0--|--0-----------2-----------|--0------------------------|


  Q    A chord diagramE MajorE  A chord diagramE MajorE  S E.  A chord diagramE MajorE  A chord diagramE MajorE     A chord diagramE MajorE  A chord diagramE MajorE  A chord diagramE MajorE  A chord diagramE MajorE   A chord diagramE MajorE   A chord diagramE MajorE   A chord diagramE MajorE  A chord diagramE MajorE
-------------------------|-----------------------------|
----------0--3-3---0-----|-----------------------------|
--2----------0--------0--|--0-----0-----------------0--|
--0----------------------|-----2-----4s--5s--4s--2-----|
-------------------------|--3--------------------------|
-------2-----3-----------|-----------------------------|


  Q    A chord diagramE MajorE  A chord diagramE MajorE  A chord diagramE MajorE  A chord diagramE MajorE  A chord diagramE MajorE  A chord diagramE MajorE     A chord diagramE MajorE  A chord diagramE MajorE  A chord diagramE MajorE    A chord diagramE MajorE  A chord diagramE MajorE  A chord diagramE MajorE   A chord diagramE MajorE  A chord diagramE MajorE
-------------------------|-----------------------------|
----------------0--------|--0--------0g1--0---------0--|
--2----------2-----0--2--|--------0----------2p--0-----|
--0-------0--------------|-----2-----------------------|
-------------------------|-----------------------------|
-------2-----------------|--0-------------3------------|


  Q    A chord diagramE MajorE  A chord diagramE MajorE  S E.  S E.     Q.     A chord diagramE MajorE  A chord diagramE MajorE  A chord diagramE MajorE  A chord diagramE MajorE  A chord diagramE MajorE
---------------------0---|------------------------|
----------0--3-3---3-----|------------------------|
--2----------0-----------|--0------------0--0--0--|
--0----------------------|--2------2--2--2--2--2--|
-------------------------|--3------3--3-----3-----|
-------2-----3-----------|------------------------|


  A chord diagramE MajorE  A chord diagramE MajorE  S S S  S A chord diagramE MajorE  A chord diagramE MajorE  A chord diagramE MajorE  S  S    A chord diagramE MajorE  A chord diagramE MajorE  A chord diagramE MajorE  A chord diagramE MajorE  A chord diagramE MajorE  A chord diagramE MajorE  A chord diagramE MajorE  A chord diagramE MajorE
-----------------0-------------|--------------------------|
------------0h-3----------3p-1-|-----------1-----------1--|
----------0------------0-------|--------2-----------0-----|
--------2-----------2----------|-----2-----------2--------|
--2--------------3-------------|--0-----------3-----------|
--0--0-------------------------|--------------------------|


  A chord diagramE MajorE  A chord diagramE MajorE  S S S  S A chord diagramE MajorE  A chord diagramE MajorE  A chord diagramE MajorE  S  S    A chord diagramE MajorE  A chord diagramE MajorE  A chord diagramE MajorE  S  S A chord diagramE MajorE  S S S  S S  S
--0--------------0--------0h-2-|--0------------------------------|
--0--3--0---0h-3---------------|-----------3p-1------0-3p-0-3p-0-|
--0-------0------------0-------|--------2------------------------|
--------------------2----------|-----2-------------2-------------|
-----------------3-------------|--0-------------3----------------|
--0----------------------------|---------------------------------|


        |--3--|
  A chord diagramE MajorE  A chord diagramE MajorE  A chord diagramE MajorE  A chord diagramE MajorE  A chord diagramE MajorE  S S  S  S Q       Q.     A chord diagramE MajorE  Q    Q
--0-----------------------------|----------------------|
--------3--0--------------------|----------------------|
--------------0-----------------|------------0---------|
-----2-----------4-2p-0h-2-2----|---------2-------4----|
-----------------3--------------|--0---------3----5----|
--0-----------------------------|----------------------|


  Q.     S S Q    A chord diagramE MajorE  S S    W                   Q    Q    Q    A chord diagramE MajorE  A chord diagramE MajorE
-------------------------|-------------------|-----------------------|
-----------------------0-|-------------------|-------0---------------|
--0------------------0---|--2----------------|--0---------2-------2--|
--2--------2-2----L------|--2----------------|--2--------------2-----|
---------2---3----L------|--0----------------|-----------------------|
--0----------------------|-------------------|--0---------0----------|


  Q    A chord diagramE MajorE  A chord diagramE MajorE   A chord diagramE MajorE  A chord diagramE MajorE   A chord diagramE MajorE  A chord diagramE MajorE     A chord diagramE MajorE  A chord diagramE MajorE  A chord diagramE MajorE  A chord diagramE MajorE  A chord diagramE MajorE  A chord diagramE MajorE  A chord diagramE MajorE  A chord diagramE MajorE
------------------------0--|--------------------------|
-----------------0h--3-----|-----------3--------3-----|
--0-------0----------------|--------0--------2-----2--|
-------2-----/5------------|-----2--------0-----------|
---------------------------|--3-----------------------|
--0------------------------|--------------------------|


              |----3----|
  A chord diagramE MajorE  A chord diagramE MajorE  A chord diagramE MajorE  A chord diagramE MajorE  Q    Q    Q       A chord diagramE MajorE  A chord diagramE MajorE  A chord diagramE MajorE  A chord diagramE MajorE  A chord diagramE MajorE  A chord diagramE MajorE  A chord diagramE MajorE  A chord diagramE MajorE
-----------------------------|--------------------------|
-------------------0----3----|--0--------0--1--------1--|
--------2--2--2--------------|--------0-----------0-----|
-----0-----------------------|-----0-----------0--------|
-----------------------------|--------------------------|
--2-----------2--------------|--3-----------3-----------|


  A chord diagramE MajorE  A chord diagramE MajorE  A chord diagramE MajorE  A chord diagramE MajorE  A chord diagramE MajorE  A chord diagramE MajorE  S  S A chord diagramE MajorE     A chord diagramE MajorE  A chord diagramE MajorE  A chord diagramE MajorE  A chord diagramE MajorE  A chord diagramE MajorE  A chord diagramE MajorE  A chord diagramE MajorE  A chord diagramE MajorE
-------------------------0--|--------------------------|
--3-----3--3--3--0--3p-0----|-----------0-----------0--|
--------------2-------------|--------0-----------4-----|
-----0----------------------|-----2-----------4--------|
----------------------------|--------------2-----------|
--3-----------2-------------|--0-----------------------|


              |----3----|
  A chord diagramE MajorE  A chord diagramE MajorE  A chord diagramE MajorE  A chord diagramE MajorE  Q    Q    Q       A chord diagramE MajorE  A chord diagramE MajorE  A chord diagramE MajorE  A chord diagramE MajorE  A chord diagramE MajorE  A chord diagramE MajorE  A chord diagramE MajorE  A chord diagramE MajorE
-----------------------------|--0-----------0-----------|
-----------0------------3----|-----------1--------------|
--------4-----4----5---------|--------0--------------0--|
-----4--------4--------------|-----2--------------2-----|
--2-----------2--------------|--3--------------3--------|
-----------------------------|--------------------------|


  Q.     A chord diagramE MajorE  A chord diagramE MajorE  A chord diagramE MajorE  A chord diagramE MajorE  A chord diagramE MajorE     A chord diagramE MajorE  A chord diagramE MajorE  A chord diagramE MajorE  A chord diagramE MajorE  A chord diagramE MajorE  A chord diagramE MajorE  A chord diagramE MajorE  A chord diagramE MajorE
------------------------|--0-----------------------|
---------3--3--3--3--3--|--0--------3-----------3--|
--2---------2-----------|--0-----0-----4-----4-----|
--5---------------------|-----2-----------4--------|
--5---------------------|--------------2-----------|
------------2-----------|--0-----------------------|


              |----3----|
  A chord diagramE MajorE  A chord diagramE MajorE  A chord diagramE MajorE  A chord diagramE MajorE  Q    Q    Q       A chord diagramE MajorE  A chord diagramE MajorE  A chord diagramE MajorE  A chord diagramE MajorE  A chord diagramE MajorE  A chord diagramE MajorE  A chord diagramE MajorE  A chord diagramE MajorE
-----------------------------|--0-----------0-----------|
-----------0------------3----|-----------1-----------1--|
--------4-----4----5---------|--------0-----------0-----|
-----4--------4--------------|-----2--------------------|
--2-----------2--------------|--3--------------3--------|
-----------------------------|--------------------------|


              |----3----|
  A chord diagramE MajorE  A chord diagramE MajorE  A chord diagramE MajorE  A chord diagramE MajorE  Q    Q    Q       A chord diagramE MajorE  S S A chord diagramE MajorE   A chord diagramE MajorE  S E.  A chord diagramE MajorE   A chord diagramE MajorE
-----------------------------|-----------------------------|
--------3-----3----3----1----|--0---------------1---Lp--0--|
-----2-----2--2--------------|-------2-Lp--0---------------|
--0--------------------------|-----2----------2------------|
-----------------------------|----------------3------------|
--------------2--------------|--0--------------------------|


                                |--3--|
  H        A chord diagramE MajorE  A chord diagramE MajorE  A chord diagramE MajorE  A chord diagramE MajorE     A chord diagramE MajorE  A chord diagramE MajorE  A chord diagramE MajorE  A chord diagramE MajorE  A chord diagramE MajorE  S S  S  S Q       H        Q    Q
-----------------------|--0-----------------------------|---------------------|
--------------------0--|--0-----3--0--------------------|---------------------|
--2--------------2-----|--0-----------0-----------------|---------------------|
--0-----------0--------|-----2-----------4-2p-0h-2-L----|----------------4----|
-----------------------|-----------------3--------------|--0--------3---------|
-----------2-----------|--0-----------------------------|---------------------|


  Q    A chord diagramE MajorE  S  S S  S  A chord diagramE MajorE  A chord diagramE MajorE  S S    H        Q    A chord diagramE MajorE  A chord diagramE MajorE     Q    A chord diagramE MajorE  A chord diagramE MajorE  H
-------------------------------|----------------------|-----------------------|
-----------------------------0-|----------------------|-----------------------|
---------------------------0---|-------------------0--|----------0------------|
--5----7--5p-4-2p-0h-2--L------|--2--------2----2-----|-------2-----2---------|
---------------3---------------|--0--------0----------|-------------3p--------|
--0----------------------------|----------------------|--0--------------------|


  Q.     A chord diagramE MajorE  Q    Q       Q.     S S H            Q.     A chord diagramE MajorE  Q    Q
----------------------|-----------------------|----------------------|
----------------------|-----------------------|----------------------|
------------0---------|-----------------------|------------0---------|
---------2-------4----|--2--------2-2---------|---------2-------4----|
--0---------3----5----|---------2---3p--------|--0---------3----5----|
----------------------|--0--------------------|----------------------|


  Q.     S S H            Q.     A chord diagramE MajorE  Q    Q       Q.     S S H
-----------------------|----------------------|-----------------------|
-----------------------|----------------------|-----------------------|
-----------------------|------------0---------|-----------------------|
--2--------2-2---------|---------2-------4----|--2--------2-2---------|
---------2---3p--------|--0---------3----5----|---------2---3p--------|
--0--------------------|----------------------|--0--------------------|


                            ^
  Q.     A chord diagramE MajorE  Q    Q          W
----------------------|--12----------------||
----------------------|--12----------------||
------------0---------|--12----------------||
---------2-------4----|----------------------||
--0---------3----5----|----------------------||
----------------------|--12----------------||



Duration 🏷Legend
---------------
W - whole
H - half
Q - quarter
A chord diagramE MajorE - 8th
S - 16th
T - 32nd
X - 64th
. - note dotted
|-n-|  - n-tuplets


Tablature 🏷Legend
----------------
L - tied note
x - dead note
g - grace note
(n) - ghost note
> - accentuded note
NH - natural harmonic
AH - artificial harmonic
TH - tapped harmonic
SH - semi harmonic
PH - pitch harmonic
h - hammer on
p - pull off
b - bend
br - bendRelease
pb - preBend
pbr - preBendRelease
brb - bendReleaseBend
\n/ - tremolo bar dip
\n - tremolo bar dive
-/n - tremolo bar Release up
/n\ - tremolo bar inverted dip
/n - tremolo bar return
-\n - tremolo bar Release down
S - shift slide
s - legato slide
/ -  slide into from below or out of upwards
\ -  slide into from above or out of downwards
~ - vibrato
W - wide vibrato
tr - trill
TP - tremolo picking
T - tapping
S - slap
P - pop
< - fade in

Other versions of Brothers In Arms

Brothers in ArmsChords
Brothers in Arms (Ver. 2)Chords
Brothers in Arms (Ver. 3)Chords
Brothers in Arms Right (Ver. 4)Chords
Brothers in ArmsTabs
Brothers in Arms (Ver. 3)Tabs
Brothers in Arms on The NightTabs

Almost there ...

Sign in to get your own page with links to favourite songs and more. You are just one click away...

Login with Facebook Login with Google