Search tabs and chords

Search for song, artist or band

Log in

One click and you are in

Login with Facebook Login with Google

Why sign up and log in

Guitar Tabs Explorer
Celine Dion bass tabs for Falling into you

Bass tabs

Tuning: Standard (E A D G)

Difficulty: Intermediate

Falling Into You
Title track taken from Celine Dion’s 1996 number 1 album of the same name.
This single version reached number 10 in UK chart.

Intro:
G|-------|-------------------------------|
D|--DRUM-|------------NO BASS------------|
A|-START-|-------------------------------|
E|-------|-------------------------------|

Verse 1:
 And in your eyes......I see ribbons of colour...
G|----------------------------------------------|
D|-----------------NO BASS----------------------|
A|----------------------------------------------|
E|----------------------------------------------|

  I see us......Inside of each other...
G|------------------------------------|
D|-------------NO BASS----------------|
A|------------------------------------|
E|------------------------------------|

 I feel my conscious merge with yours...And I hear a voice say...
G|--------------------------------------------------------------|
D|--------------------------------------------------------------|
A|---------0--------------------1--------------------0----------|
E|--------------------------------------------------------------|

 What’s his is hers... (Break)
G|-------------------------|
D|-----------------3-3-3---|
A|------1----------------1-|
E|-------------------------|

Chorus:
G|----------------------------------------------------------|
D|----------------------------------------------------------|
A|---------5--7--2--3---3-3--3----------5--7--5--3---3-3--3-|
E|-3---5/7----------------------3---5/7---------------------|

                                            (Break)
G|---------------------------------------------|
D|---------------------------------------------|
A|---------5--7--2--3---3-3--3---5---5-5--5--5-|
E|-3---5/7-------------------------------------|

Verse 2:
G|----------------------------------------------------------------------|
D|----------------------------------------------------------------------|
A|-5---5----3---3----5---5----3---3----5---5----3---3----5---5----3---3-|
E|----------------------------------------------------------------------|

                                                              (Break)
G|------------------------------------------------------------------|
D|---------------------------------------------------------8--------|
A|---------7--9-------------------------7--9------------------------|
E|-5---7/9------5-6---6-6--6----5---7/9------5-6---6-6--6-----------|

Chorus 2:
G|----------------------------------------------------------|
D|----------------------------------------------------------|
A|---------5--7--2--3---3-3--3----------5--7--5--3---3-3--3-|
E|-3---5/7----------------------3---5/7---------------------|

G|------------------------------------------|
D|------------------------------------------|
A|---------5--7--2--3---3-3--3---5---5-5--5-|
E|-3---5/7----------------------------------|

Bridge 1:
G|-7-7--5--5--3---3--------------------------------------------------|
D|------------------3-3------5----------2----------3-----------------|
A|----------------------3--3---3---0--0---0---1--1---1----------5--7-|
E|------------------------------------------------------3---5/7------|

G|--------------------------------------|
D|--------------------------------------|
A|-2--3--3-3--3---5--5-5--5---5--5-5--5-|
E|--------------------------------------|

Pre-Sax Solo:
G|-----5----------3----------5--------------------|
D|--------5----------3----------5-----------------|
A|-3-----------1----------3---------5--5-5---3-2--|
E|------------------------------------------------|

Sax Solo:
G|--------------------------------------------------------------------|
D|--------------------------------------------------------------------|
A|---------5-7------------------------7--9------------------------5-7-|
E|-3---5/7-----6--8--8-8--7---5---7/9------5--6--6-6--6---3---5/7-----|

                            (Break)
G|-----------------------------|
D|-----------------------------|
A|---------------5--5-5--5--5\-|
E|-6--8--8-8--8----------------|

Bridge 2:
  So close your eyes...and let me kiss you...And while you sleep...
G|-----------------------------------------------------------------|
D|----------------------NO BASS------------------------------------|
A|-----------------------------------------------------------------|
E|-----------------------------------------------------------------|

  I will miss you
G|------------------------------------|
D|-------------8-6-5-3-1----1---------|
A|----------------------------3--2--0-|
E|------------------------------------|

Chorus 2:
G|----------------------------------------------------------|
D|----------------------------------------------------------|
A|---------5--7--2--3---3-3--3----------5--7--5--3---3-3--3-|
E|-3---5/7----------------------3---5/7---------------------|

G|------------------------------------------|
D|------------------------------------------|
A|---------5--7--2--3---3-3--3---5---5-5--5-|
E|-3---5/7----------------------------------|

Bridge 1:
G|-7-7--5--5--3---3--------------------------------------------------|
D|------------------3-3------5----------2----------3-----------------|
A|----------------------3--3---3---0--0---0---1--1---1----------5--7-|
E|------------------------------------------------------3---5/7------|

G|--------------------------------------|
D|--------------------------------------|
A|-2--3--3-3--3---5--5-5--5---5--5-5--5-|
E|--------------------------------------|

Outro:
G|-------------------------------------------------------------------|
D|------3----------5----------------------------------3----------5---|
A|-1--1---1---3--3---3---5--5-5--5---5--5-5--5---1--1---1---3--3---3-|
E|-------------------------------------------------------------------|

                                  (END)
G|-----------------------------------|
D|-----------------------------------|
A|-5--5-5--5---5--5-5--5---5--5-5--5-|
E|-----------------------------------|

Symbols: / Slide Up
         \ Slide Down

Almost there ...

Sign in to get your own page with links to favourite songs and more. You are just one click away...

Login with Facebook Login with Google