Search tabs and chords

Search for song, artist or band

Log in

One click and you are in

Login with Facebook Login with Google

Why sign up and log in

Guitar Tabs Explorer
Celine Dion bass tabs for Ce netait quun reve

Bass tabs

ca. 74 BPM

1
Intro:
G||----------------|----------------|----------------|----------------||
D||----------------|----------------|----------------|----------------||
A||-6-------------\|-1-----------1-/|-6-------------\|-1-----------1--||
E||----------------|----------------|----------------|----------------||

5
Verse 1:
G||----------------|----------------|----------------|----------------|
D||----------------|----------------|----------------|----------------|
A||-6-----6-6------|-6-----6-6------|-6-----6-6-----6\----------------|
E||---------------6|---------------6|----------------|-4-----4-4------|

9
G||----------------|----------------|----------------|----------------||
D||----------------|-5-----5--------|-3-----3--------|-1--------------||
A||---------4-----4|---------3-----3|---------1-----1|---------1---1--||
E||-4-----4--------|----------------|----------------|----------------||

13
Verse 2:
G||----------------|----------------|----------------|----------------|
D||----------------|----------------|----------------|----------------|
A||-6-----6-6------|-6-----6-6------|-6-----6-6-----6\----------------|
E||---------------6|---------------6|----------------|-4-----4-4------|

17
G||----------------|----------------|----------------|----------------||
D||----------------|-5-----5--------|-3-----3--------|-1--------------||
A||---------4-----4|---------3-----3|---------1-----1|---------1---1--||
E||-4-----4--------|----------------|----------------|----------------||

21
Chorus 1:
G||----------------|----------------|----------------|----------------|
D||----------------|----------------|----------------|----------------|
A||-6-----6-6------|-6-----6-6-----6|----------------|----------------|
E||---------------6|----------------|-4-----4-4------|-4-----4-4------|

25
G||----------------|----------------|----------------|----------------||
D||-------------5--|-3-----3--------|-1-----1--------|----------------||
A||-6-----5-3-----3|---------1-----1|---------1------|-1-------1---1-/||
E||----------------|----------------|----------------|----------------||

29
Chorus 2:
G||----------------|----------------|----------------|----------------|
D||----------------|----------------|----------------|----------------|
A||-6-----6-6------|-6-----6-6-----6|---------------6|---------4-----4|
E||---------------6|----------------|-4-----4-4------|-4-----4--------|

G||----------------|----------------|----------------|----------------||
D||-5-----5--------|-3-----3--------|-1-----1--------|----------------||
A||---------3-----3|---------1-----1|---------1------|-2-------2---2-/||
E||----------------|----------------|----------------|----------------||

37
Verse 3:
G||----------------|----------------|----------------|----------------|
D||----------------|----------------|----------------|----------------|
A||-7-----7-7------|-7-----7-7------|-7-----7-7-----7|---------------7|
E||---------------7|---------------7|----------------|-5-----5-5------|

41
G||----------------|----------------|----------------|----------------||
D||----------------|-6-----6--------|----------------|-2--------------||
A||---------5-----5|---------5---4--|---------2-----2|---------2---2-/||
E||-5-----5--------|----------------|-2-----2--------|----------------||

45
Chorus 3:
G||----------------|----------------|----------------|----------------|
D||----------------|----------------|----------------|----------------|
A||-7-----7-7-----7|----------------|----------------|---------5-----5|
E||----------------|-0-----0-0-0---0|-5-----5-5-----5|-5-----5--------|

49
G||----------------|----------------|----------------|----------------||
D||-------------6--|-4-----4--------|-2--------------|----------------||
A||-7-----6-4-----4|---------2-----2|---------2------|-2-------2---2-/||
E||----------------|----------------|----------------|----------------||

53
Chorus 4:
G||----------------|----------------|----------------|----------------|
D||----------------|----------------|----------------|-------------7--|
A||-7-----7-7-----7|----------------|----------------|-5-----5-5-----5|
E||----------------|0-----0-0------0|-5-----5-5-----5|----------------|

57
G||----------------|----------------|----------------|----------------||
D||-------------6--|-4-----4--------|-2--------------|-----6----------||
A||-7-----6-4-----4|---------2-----2|---------2---0--|---------4-----4||
E||----------------|----------------|----------------|-4-----4--------||

61
Outro:
G||----------------|----------------|----------------|----------------||
D||----------------|----------------|----------------|----------------||
A||---------2------|----------------|----------------|----------------||
E||-2--------------|-8-------------8\-1--------------|-0--------------||

Almost there ...

Sign in to get your own page with links to favourite songs and more. You are just one click away...

Login with Facebook Login with Google