Search tabs and chords

Search for song, artist or band

Log in

One click and you are in

Login with Facebook Login with Google

Why sign up and log in

Guitar Tabs Explorer
Celine Dion guitar tabs for Because you loved me

Guitar tabs

Tuning: Standard

Difficulty: Intermediate
For all those times you stood by me…	for all the
E||--------------------------|----------------------------------------|
B||----------------2--2------|--2------2--------2---------2----2------|
B||--------------1-----------|-------3------3-----------1-------------|
B||--------------------------|----------------------------------------|
B||--------------------------|----------------------------------------|
E||--------------------------|----------------------------------------|

truth that…….		For all the joy you brought to my life….
-----------------------------------|-------------------------------0---|
--2----2---2---2---------2----4--4-|-------4-4---4-2-2---------4-----4-|
---------3---3---------3-----------|-------------------------1---------|
-----------------------------------|-----------------------------------|
-----------------------------------|-----------------------------------|
-----------------------------------|-----------------------------------|

For every dream you made come true….. For all the love.
-------------------1-2--2-1-2-|-------2---2----2---2-------4-4----4----4-|
4---4--2---2------------------|------------------------------------------|
------------------------------|------------------------------------------|
------------------------------|------------------------------------------|
------------------------------|------------------------------------------|
------------------------------|------------------------------------------|

-----4-4----4-----------------|----------------------------------------|
--------------4--------4------|--4----4---4----2---2---------2--4------|
------------------------------|----------------------------3-----------|
------------------------------|----------------------------------------|
------------------------------|----------------------------------------|
------------------------------|----------------------------------------|

--2--2-2----2---2----2-2------|--2--0----0--------------|
------------------------------|-------4----4------------|
------------------------------|-------------------------|
------------------------------|-------------------------|
------------------------------|-------------------------|
------------------------------|-------------------------|

CHORUS: You were the….
--2--2-------------2--------|--6--6---6------------------------|
-------4--4-4----4----------|----------------------------------|
----------------------------|----------------------6----6------|
----------------------------|--------------------6-------------|
----------------------------|----------------------------------|
----------------------------|----------------------------------|

-----------------------------------|-----------------------------------|
------------------2-------2----2---|--2----2---2---2-------2----4----4-|
--6----6---6----3-------1----------|---------3---3-------3-------------|
-----------------------------------|-----------------------------------|
-----------------------------------|-----------------------------------|
-----------------------------------|-----------------------------------|


----------------------------0---|----------------------1-4---4----4-|
4---4---4-2---2---------4-----4-|-----4---4--2-2--------------------|
----------------------1---------|-----------------------------------|
--------------------------------|-----------------------------------|
--------------------------------|-----------------------------------|
--------------------------------|-----------------------------------|

--4-1---4-1---4-------4-6----8----8-|-------8-6----4-4-------------|
------------------------------------|--------------------------4---|
------------------------------------|------------------------------|
------------------------------------|------------------------------|
------------------------------------|------------------------------|
------------------------------------|------------------------------|

-----------------------------------|------------------------|
--4--4---4----2-2---------2----4---|----4--4----------------|
------------------------1----------|------------------------|
-----------------------------------|------------------------|
-----------------------------------|------------------------|
-----------------------------------|------------------------|

STANZA
--------------------------|----------------------------------------|
----------------2--2------|--2------2--------2---------2----2------|
--------------1-----------|-------3------3-----------1-------------|
--------------------------|----------------------------------------|
--------------------------|----------------------------------------|
--------------------------|----------------------------------------|

-----------------------------------|-------------------------------0---|
--2----2---2---2---------2----4--4-|-------4-4---4-2-2---------4-----4-|
---------3---3---------3-----------|-------------------------1---------|
-----------------------------------|-----------------------------------|
-----------------------------------|-----------------------------------|
-----------------------------------|-----------------------------------|

-------------------1-2--2-1-2-|-------2---2----2---2-------4-4----4----4-|
4---4--2---2------------------|------------------------------------------|
------------------------------|------------------------------------------|
------------------------------|------------------------------------------|
------------------------------|------------------------------------------|
------------------------------|------------------------------------------|

-----4-4----4-----------------|----------------------------------------|
--------------4--------4------|--4----4---4----2---2---------2--4------|
------------------------------|----------------------------3-----------|
------------------------------|----------------------------------------|
------------------------------|----------------------------------------|
------------------------------|----------------------------------------|

--2--2-2----2---2----2-2------|--2--0----0--------------|
------------------------------|-------4----4------------|
------------------------------|-------------------------|
------------------------------|-------------------------|
------------------------------|-------------------------|
------------------------------|-------------------------|

CHORUS
--2--2-------------2--------|--6--6---6------------------------|
-------4--4-4----4----------|----------------------------------|
----------------------------|----------------------6----6------|
----------------------------|--------------------6-------------|
----------------------------|----------------------------------|
----------------------------|----------------------------------|

-----------------------------------|-----------------------------------|
------------------2-------2----2---|--2----2---2---2-------2----4----4-|
--6----6---6----3-------1----------|---------3---3-------3-------------|
-----------------------------------|-----------------------------------|
-----------------------------------|-----------------------------------|
-----------------------------------|-----------------------------------|

---------------------------------0---|----------------------1-4---4----4-|
-----4---4---4-2---2---------4-----4-|-----4---4--2-2--------------------|
---------------------------1---------|-----------------------------------|
-------------------------------------|-----------------------------------|
-------------------------------------|-----------------------------------|
-------------------------------------|-----------------------------------|

-------4-1---4-1---4-------4-6----8----8-|-------8-6----4-9--------------|
-----------------------------------------|-------------------------------|
-----------------------------------------|---------------------------8---|
-----------------------------------------|-------------------------------|
-----------------------------------------|-------------------------------|
-----------------------------------------|-------------------------------|

-----------------------------------|-----------------------|
-------------------------------4---|----4--4---------------|
--8--8---8----6-6---------6--------|-----------------------|
------------------------6----------|-----------------------|
-----------------------------------|-----------------------|
-----------------------------------|-----------------------|

BRIDGE: you were always there….
--1--1-1---1---1------1-1-----1-|--4--4-4--1-4----2-----------|
--------------------------------|---------------------4--4----|
--------------------------------|-----------------------------|
--------------------------------|-----------------------------|
--------------------------------|-----------------------------|
--------------------------------|-----------------------------|

----1-1------------1---1------------|-----------------------------4-|
--4-------4------4---------4---4----|--4------4------4--------------|
------------------------------------|-------------------------------|
------------------------------------|-------------------------------|
------------------------------------|-------------------------------|
------------------------------------|-------------------------------|

--4--4-4----1-4-4-------4-6-6-|-----4-4--1-4--1-------------4-|
------------------------------|-----------------4-2-----------|
------------------------------|-------------------------------|
------------------------------|-------------------------------|
------------------------------|-------------------------------|
------------------------------|-------------------------------|

--4-4-4-4--4-4-----6-11------|--11-14-------------------------|
-----------------------------|--------------------------------|
-----------------------------|-------------------------9------|
-----------------------------|--------------------12----------|
-----------------------------|-----------------12-------------|
-----------------------------|--------------------------------|

------------------------------------|-----------------------------------|
------------------------------------|-----------2---2-------2----4----4-|
-------------------6-------6----6---|--6----6-3---3-------3-------------|
--11---11---11---8-------6----------|-----------------------------------|
------------------------------------|-----------------------------------|
------------------------------------|-----------------------------------|

---------------------------------0---|----------------------1-4---4----4-|
-----4---4---4-2---2---------4-----4-|-----4---4--2-2--------------------|
---------------------------1---------|-----------------------------------|
-------------------------------------|-----------------------------------|
-------------------------------------|-----------------------------------|
-------------------------------------|-----------------------------------|

-------4-1---4-1---4-------4-6----8----8-|-------8-6----4-9--------------|
-----------------------------------------|-------------------------------|
-----------------------------------------|---------------------------8---|
-----------------------------------------|-------------------------------|
-----------------------------------------|-------------------------------|
-----------------------------------------|-------------------------------|

-----------------------------------|---------------------------------|
-------------------------------4---|----4--4-------------4----4------|
--8--8---8----6-6---------6--------|-------------------3-------------|
------------------------6----------|---------------------------------|
-----------------------------------|---------------------------------|
-----------------------------------|---------------------------------|

-----------------------------------|-----------------------------------|
--4----4---4------4-------4----4---|--4----4---4---4-------4----6----6-|
----------------5-------3----------|---------5---5-------5-------------|
-----------------------------------|-----------------------------------|
-----------------------------------|-----------------------------------|
-----------------------------------|-----------------------------------|

-----------------------------1---2-1-|-----1---1------------3-6---6----6-|
-----6---6---6-4---4-----------------|------------4-4--------------------|
---------------------------3---------|-----------------------------------|
-------------------------------------|-----------------------------------|
-------------------------------------|-----------------------------------|
-------------------------------------|-----------------------------------|

--6-3---6-3---6-------6-8----10---10-|-------10-8----6-11---------------|
-------------------------------------|----------------------------------|
-------------------------------------|-----------------------------10---|
-------------------------------------|----------------------------------|
-------------------------------------|----------------------------------|
-------------------------------------|----------------------------------|

-------------------------------------|------------------------|
---------------------------------6---|----6--6------------6---|
--10--10---10---8-8---------8--------|------------------------|
--------------------------8----------|------------------------|
-------------------------------------|------------------------|
-------------------------------------|------------------------|

--------------------------------|-----------------------------|
--6--6---6----4-4---------------|----4------6--------6---6----|
-----------------------------5--|-----------------------------|
--------------------------------|-----------------------------|
--------------------------------|-----------------------------|
--------------------------------|-----------------------------|

Almost there ...

Sign in to get your own page with links to favourite songs and more. You are just one click away...

Login with Facebook Login with Google