Search tabs and chords

Search for song, artist or band

Log in

One click and you are in

Login with Facebook Login with Google

Why sign up and log in

Guitar Tabs Explorer
Celine Dion guitar tabs for Beauty and the beast (Ver. 2)

Guitar tabs

Tuning: Standard (E chord diagramEE A chord diagramAA D chord diagramDD G chord diagramGG B chord diagramBB E chord diagramEE)

Verse:

e|-------------------------------------------------------------------0---0--3|
B|-----------------0h1-------------0-0-1---------------0h1--3----------3-----|
G|--0---0-------0---------------2--------0---0-------0----------0------------|
D|----2---2--2---------3---3---------------2---2--2-----------0---0----------|
A|--3--------------------3---3-----------3-----------------------------------|
E|---------------------1------------------------------------3----------------|

e|---------------0----------1------------------------------------------------|
B|-1-----1-1p0-1---------------3--3--1-------0-------------------------------|
G|-----2-------------------------------0---0---------------------------------|
D|---2--------------3---3----------------0-----------------------------------|
A|-0------------------3---3--------------------------------------------------|
E|------------------1------------------3-------------------------------------|

e|-------------------------------------------------------------------0---0--3|
B|-----------------0h1-------------0-0-1---------------0h1--3----------3-----|
G|--0---0-------0---------------2--------0---0-------0----------0------------|
D|----2---2--2---------3---3---------------2---2--2-----------0---0----------|
A|--3--------------------3---3-----------3-----------------------------------|
E|---------------------1------------------------------------3----------------|

e|---------------0----------0--1-----0---------------------------------------|
B|-1-----1-1p0-1------------------3----1-------------------------------------|
G|-----2-----------------------------------0---0---0-------------------------|
D|---2--------------3---3----------------2---2---2--2------------------------|
A|-0------------------3---3------------3--------------3----------------------|
E|------------------1--------------------------------------------------------|


Chorus:

e|--------0--1--3---------3-3--------------3/5--3---------3-3--------------0-|
B|--1--3-----0--0-----0---0-1--------0h1-3------0-----0---0-1----------0h1---|
G|-----0--------------0---------2---------------------0---------2----2-------|
D|--------2---------2---------4---4-----------------2---------4---4----------|
A|--3-------------2-------------------------------2--------------------------|
E|--------------0-----------1-------------------0-----------1----------------|

e|--3-------3--1--0-------------------0----------------------3---3---3---3---|
B|--0-------0--------3--1-------1--3----1--3-3---3---3---3---3---3---3---3---|
G|--------0-----------------2---2----------3-3---3---3---3-----0---0---0---0-|
D|------2-----------------2---2------------3---3---3---3---3-----------------|
A|----2-----------------0------------------1---------------------------------|
E|--0--------------------------------------------------------3---------------|

Verse:

o     o  o         o     o  o        o     o  o         o        o o

e|-------------------------------------------------------------------0---0--3|
B|-----------------0h1-------------0-0-1---------------0h1--3----------3-----|
G|--0---0-------0---------------2--------0---0-------0----------0------------|
D|----2---2--2---------3---3---------------2---2--2-----------0---0----------|
A|--3--------------------3---3-----------3-----------------------------------|
E|------x----------x---1---x---------x-------x---------x----3---x--------x---|

o     o o        o     o o          o

e|---------------0----------1------------------------------------------------|
B|-1-----1-1p0-1---------------3--3--1-------0-------------------------------|
G|-----2-------------------------------0---0---------------------------------|
D|---2--------------3---3----------------0-----------------------------------|
A|-0------------------3---3--------------------------------------------------|
E|-----x-------x----1---x---------x----3---x---------------------------------|

o     o  o         o     o  o        o     o  o         o         o o

e|-------------------------------------------------------------------0---0--3|
B|-----------------0h1-------------0-0-1---------------0h1--3----------3-----|
G|--0---0-------0---------------2--------0---0-------0----------0------------|
D|----2---2--2---------3---3---------------2---2--2-----------0---0----------|
A|--3--------------------3---3-----------3-----------------------------------|
E|------x----------x---1---x---------x-------x---------x----3---x--------x---|

o     o o        o     o o          o     o o

e|---------------0----------0--1-----0---------------------------------------|
B|-1-----1-1p0-1------------------3----1-------------------------------------|
G|-----2-----------------------------------0---0---0-------------------------|
D|---2--------------3---3----------------2---2---2--2------------------------|
A|-0------------------3---3------------3--------------3----------------------|
E|-----x-------x----1---x---------x--------x-------x-------------------------|


Outro:

e|---0---0--3--------------0------0--1-----0---------------------------------|
B|-----3-------1--1--0--1---------------3------1--------1--------------------|
G|---------------------------------------------------0-----------------------|
D|----------------------------3-------------------2--------------------------|
A|-------------0-------------------------------3-----------------------------|
E|----------------------------1----------------------------------------------|



************************************

| h  Hammer-on
| p  Pull-off
| /  Slide up
| x  Dead note

************************************

Other versions of Beauty And The Beast

Beauty and the beastChords
Beauty and the beast (Ver. 2)Chords
Beauty and the beastTabs

Almost there ...

Sign in to get your own page with links to favourite songs and more. You are just one click away...

Login with Facebook Login with Google