The Wanderer by Dion

The Wanderer tab by Dion

Guitar tabs

THE WANDERER

As recorded by Dion
(From the 1961 Album RUNAROUND SUE)

Words and Music by Ernie Maresca

Gtr I (E A D G B E) - 'Johnny Falbo - Electric Guitar'


 Intro
 Q=117(8=s8)
 4/4
 Gtr I (Clean El. Gtr.)
 W      e e e e e e e e  e e e e e e e e
|----------||------------------|------------------||
|----------||o-7-7-8-8-7-7-8-8-|-7-7-8-8-7-7-8-8-o||
|----------||--7-7-7-7-7-7-7-7-|-7-7-7-7-7-7-7-7--||
|----------||--7-7-9-9-7-7-9-9-|-7-7-9-9-7-7-9-9--||
|----------||o-----------------|-----------------o||
|----------||------------------|------------------||


  1st & 2nd Verses
  e e e e e e e e  e e e e e e e e  e e e e e e e e  e e e e e e e e
||------------------|-----------------|-----------------|-----------------|
||o-7-7-8-8-7-7-8-8-|-7-7-8-8-7-7-8-8-|-7-7-8-8-7-7-8-8-|-7-7-8-8-7-7-8-8-|
||--7-7-7-7-7-7-7-7-|-7-7-7-7-7-7-7-7-|-7-7-7-7-7-7-7-7-|-7-7-7-7-7-7-7-7-|
||--7-7-9-9-7-7-9-9-|-7-7-9-9-7-7-9-9-|-7-7-9-9-7-7-9-9-|-7-7-9-9-7-7-9-9-|
||o-----------------|-----------------|-----------------|-----------------|
||------------------|-----------------|-----------------|-----------------|


 e e e e e e e e  e e e e e e e e  e e e e e e e e  e e e e e e e e
|-----------------|-----------------|-----------------|------------------|
|-3-3-5-5-3-3-5-5-|-3-3-5-5-3-3-5-5-|-7-7-8-8-7-7-8-8-|-7-7-8-8-7-7-8-8--|
|-4-4-5-5-4-4-5-5-|-4-4-5-5-4-4-5-5-|-7-7-7-7-7-7-7-7-|-7-7-7-7-7-7-7-7--|
|-5-5-5-5-5-5-5-5-|-5-5-5-5-5-5-5-5-|-7-7-9-9-7-7-9-9-|-7-7-9-9-7-7-9-9--|
|-----------------|-----------------|-----------------|------------------|
|-----------------|-----------------|-----------------|------------------|


                            1.
 e e e e e e e e  e e e e e e e e  e e e e e e e e  e e e e e e e e
|-----------------|-----------------|-----------------|-------------------||
|-5-5-7-7-5-5-7-7-|-3-3-5-5-3-3-5-5-|-7-7-8-8-7-7-8-8-|-8-x-5-5-5-5-5-x--o||
|-6-6-7-7-6-6-7-7-|-4-4-5-5-4-4-5-5-|-7-7-7-7-7-7-7-7-|-7-x-6-6-6-6-6-x---||
|-7-7-7-7-7-7-7-7-|-5-5-5-5-5-5-5-5-|-7-7-9-9-7-7-9-9-|-9-x-7-7-7-7-7-x---||
|-----------------|-----------------|-----------------|------------------o||
|-----------------|-----------------|-----------------|-------------------||


       Bridge
 2.
 W      e e e e e e e e  e e e e e e e e  e e e e e e e e
|----------||-----------------|-----------------|------------------|
|----------||-5-5-5-5-5-5-5-5-|-5-5-5-5-5-5-5-5-|-5-5-5-5-5-5-5-5--|
|----------||-6-6-6-6-6-6-6-6-|-6-6-6-6-6-6-6-6-|-6-6-6-6-6-6-6-6--|
|----------||-7-7-7-7-7-7-7-7-|-7-7-7-7-7-7-7-7-|-7-7-7-7-7-7-7-7--|
|----------||-----------------|-----------------|------------------|
|----------||-----------------|-----------------|------------------|


 e e e e e e e e  e e e e e e e e  e e e e e e e e  e E Q H
|-----------------|-----------------|-----------------|-------------|
|-5-5-5-5-5-5-5-5-|-5-5-5-5-5-5-5-5-|-5-5-5-5-5-5-5-5-|-7-----------|
|-6-6-6-6-6-6-6-6-|-6-6-6-6-6-6-6-6-|-6-6-6-6-6-6-6-6-|-8-----------|
|-7-7-7-7-7-7-7-7-|-7-7-7-7-7-7-7-7-|-7-7-7-7-7-7-7-7-|-9-----------|
|-----------------|-----------------|-----------------|-------------|
|-----------------|-----------------|-----------------|-------------|


       3rd - 5th Verses (4th Verse: Sax Solo)
      $
 W      e e e e e e e e  e e e e e e e e
|----------||------------------|-----------------|
|----------||o-7-7-8-8-7-7-8-8-|-7-7-8-8-7-7-8-8-|
|----------||--7-7-7-7-7-7-7-7-|-7-7-7-7-7-7-7-7-|
|----------||--7-7-9-9-7-7-9-9-|-7-7-9-9-7-7-9-9-|
|----------||o-----------------|-----------------|
|----------||------------------|-----------------|


 e e e e e e e e  e e e e e e e e
|-----------------|-------------------|
|-7-7-8-8-7-7-8-8-|-7-7-8-8-7-7-8-8---|
|-7-7-7-7-7-7-7-7-|-7-7-7-7-7-7-7-7---|
|-7-7-9-9-7-7-9-9-|-7-7-9-9-7-7-9-9---|
|-----------------|-------------------|
|-----------------|-------------------|


                        To Coda
 e e e e e e e e  e e e e e e e e  e e e e e e e e  e e e e e e e e
|-----------------|-----------------|------------------|-----------------|
|-3-3-5-5-3-3-5-5-|-3-3-5-5-3-3-5-5-|-7-7-8-8-7-7-8-8--|-7-7-8-8-7-7-8-8-|
|-4-4-5-5-4-4-5-5-|-4-4-5-5-4-4-5-5-|-7-7-7-7-7-7-7-7--|-7-7-7-7-7-7-7-7-|
|-5-5-5-5-5-5-5-5-|-5-5-5-5-5-5-5-5-|-7-7-9-9-7-7-9-9--|-7-7-9-9-7-7-9-9-|
|-----------------|-----------------|------------------|-----------------|
|-----------------|-----------------|------------------|-----------------|


                            1.
 e e e e e e e e  e e e e e e e e  e e e e e e e e  e e e e e e e e
|-----------------|-----------------|-----------------|-------------------||
|-5-5-7-7-5-5-7-7-|-3-3-5-5-3-3-5-5-|-7-7-8-8-7-7-8-8-|-8-x-5-5-5-5-5-x--o||
|-6-6-7-7-6-6-7-7-|-4-4-5-5-4-4-5-5-|-7-7-7-7-7-7-7-7-|-7-x-6-6-6-6-6-x---||
|-7-7-7-7-7-7-7-7-|-5-5-5-5-5-5-5-5-|-7-7-9-9-7-7-9-9-|-9-x-7-7-7-7-7-x---||
|-----------------|-----------------|-----------------|------------------o||
|-----------------|-----------------|-----------------|-------------------||


                     Outro
 2.
   D.S. al Coda &
 e e e e e e e e   e e e e e e e e   e e e e e e e e
|------------------||-----------------||------------------|
|-8-x-5-5-5-5-5-x--||-7-7-8-8-7-7-8-8-||o-5-5-7-7-5-5-7-7-|
|-7-x-6-6-6-6-6-x--||-7-7-7-7-7-7-7-7-||--6-6-7-7-6-6-7-7-|
|-9-x-7-7-7-7-7-x--||-7-7-9-9-7-7-9-9-||--7-7-7-7-7-7-7-7-|
|------------------||-----------------||o-----------------|
|------------------||-----------------||------------------|


 e e e e e e e e  e e e e e e e e  e e e e e e e e 3x
|-----------------|-----------------|------------------||
|-3-3-5-5-3-3-5-5-|-7-7-8-8-7-7-8-8-|-7-7-8-8-7-7-8-8-o||
|-4-4-5-5-4-4-5-5-|-7-7-7-7-7-7-7-7-|-7-7-7-7-7-7-7-7--||
|-5-5-5-5-5-5-5-5-|-7-7-9-9-7-7-9-9-|-7-7-9-9-7-7-9-9--||
|-----------------|-----------------|-----------------o||
|-----------------|-----------------|------------------||


Duration 🏷Legend
---------------
W - whole; H - half; Q - quarter; E - 8th; S - 16th; T - 32nd; X - 64th; a - acciaccatura
+ - note tied to previous; . - note dotted; .. - note double dotted
Uncapitalized letters represent notes that are staccato (1/2 duration)
Irregular groupings are notated above the duration line
Duration letters will always appear directly above the note/fret number it represents the
duration for. Duration letters with no fret number below them represent rests. Multi-
bar rests are notated in the form Wxn, where n is the number of bars to rest for. Low
melody durations appear below the staff

Tablature 🏷Legend
----------------
 h  - hammer-on
 p  - pull-off
 b  - bend
 pb - pre-bend
 r  - bend release (if no number after the r, then release immediately)
 /\ - slide into or out of (from/to "nowhere")
 s  - legato slide
 S  - shift slide
 - natural harmonic
n: - artificial harmonic
n(n) - tapped harmonic
 ~  - vibrato
 tr - trill
 T  - tap
 TP - trem. picking
 PM - palm muting
\n/ - tremolo bar dip; n = amount to dip
 \n - tremolo bar down
 n/ - tremolo bar up
/n\ - tremolo bar inverted dip
 =  - hold bend; also acts as connecting device for hammers/pulls
  - volume swell (louder/softer)
 x  - on rhythm slash represents muted slash
 o  - on rhythm slash represents single note slash

Misc 🏷Legend
-----------
 | - bar
|| - double bar
||o - repeat start
o|| - repeat end
*| - double bar (ending)
 : - bar (freetime)
 $ - Segno
 & - Coda
Tempo markers - = BPM(8/16=s8/s16), where s8 = swing 8ths, s16 = swing 16ths




Well I'm the type of guy who will never settle down
Where pretty girls are well you know that I'm around
I kiss'em and I love'em 'cause to me they're all the same
I hug'em and I squeeze'em they don't even know my name
They call me the wanderer - yeah -the wanderer
I roam around around around around

Oh, well there's Flo on my left arm and there's Mary on my right
And Jani is the girl well that I'll be with tonight
And when she asks me which one I love the best
I'll tear open my shirt and show her Rosie on my chest
'Cause I'm the wanderer - yeah -the wanderer
I roam around around around around

Oh, well I roam from town to town
I go through life without a care
And I'm as happy as a clown
I'm with my two fists of iron but I'm going nowhere

Oh yeah, I'm the type of guy that likes to roam around
I'm never in one place I roam from town to town
And when I find myself fallin' for some girl
I hop right into that car of mine I drive around the world
Yeah I'm a wanderer yeah the wanderer
I roam around around around around
Lettin' go

Oh yeah, I'm the type of guy that likes to roam around
I'm never in one place I roam from town to town
And when I find myself fallin' for some girl
I hop right into that car of mine drive around the world
'Cause I'm a wanderer yeah the wanderer
I roam around around around around around around
'Cause I'm a wanderer yeah the wanderer
I roam around around around around around around around

Other versions of The Wanderer

Alternative guitar chords and tabs for The Wanderer by Dion

Find guitar tabs and chords

A B C D E F G H I J K L M N O P Q R S T U V W X Y Z #