Ruby Baby by Dion

Ruby Baby tab by Dion

Guitar tabs

RUBY BABY

As recorded by Dion
(From the 1963 Album RUBY BABY)

Words and Music by Jerry Leiber & Mike Stoller

Transcribed by Slowhand


Gtr I (E A D G B E) - 'Electric Guitar'
Gtr II (E A D G B E) - 'Acoustic Guitar'


 Intro                1st Verse
 Q=120(8=s8)
 E                  E
 4/4
 Gtr II
 E E E E E E E E  E E E E E E E E  E E E E E E E E
|-0-0-3-0-0-0-3-0-|-0-0-3-0-0-0-3-0-||-0-0-3-0-0-0-3-0-|
|-0-0-0-0-0-0-0-0-|-0-0-0-0-0-0-0-0-||-0-0-0-0-0-0-0-0-|
|-1-1-1-1-1-1-1-1-|-1-1-1-1-1-1-1-1-||-1-1-1-1-1-1-1-1-|
|-2-2-2-2-2-2-2-2-|-2-2-2-2-2-2-2-2-||-2-2-2-2-2-2-2-2-|
|-2-2-2-2-2-2-2-2-|-2-2-2-2-2-2-2-2-||-2-2-2-2-2-2-2-2-|
|-0-0-0-0-0-0-0-0-|-0-0-0-0-0-0-0-0-||-0-0-0-0-0-0-0-0-|


 Gtr I
     PM----------------------------------------------------------------|
     |--3--| |--3--|    |--3--|   |--3--|    |--3--|   |--3--|
 H    E E  E E E  E  E E E E  E E E E E  E  E E E E  E E E E E  E
|-------------------------|-------------------------|-------------------------|
|-------------------------|-------------------------|-------------------------|
|-------------------------|-------------------------|-------------------------|
|-------------------------|-------------------------|-------------------------|
|-----------------2-----2-|-----------2-----------2-|-----------2-----------2-|
|-----------3h==4---4-----|-0-0-3h4-----0-0-3h4-----|-0-0-3h4-----0-0-3h4-----|
|
| Gtr II
| E E E E E  E  E  E   E E E  E  E E E  E   E E E  E  E E E  E
|-0-0-3-0-0---0---3---0---|-0-0-3---0---0-0-3---0---|-0-0-3---0---0-0-3---0---|
|-0-0-0-0-0---0---0---0---|-0-0-0---0---0-0-0---0---|-0-0-0---0---0-0-0---0---|
|-1-1-1-1-1---1---1---1---|-1-1-1---1---1-1-1---1---|-1-1-1---1---1-1-1---1---|
|-2-2-2-2-2---2---2---2---|-2-2-2---2---2-2-2---2---|-2-2-2---2---2-2-2---2---|
|-2-2-2-2-2---2---2---2---|-2-2-2---2---2-2-2---2---|-2-2-2---2---2-2-2---2---|
|-0-0-0-0-0---0---0---0---|-0-0-0---0---0-0-0---0---|-0-0-0---0---0-0-0---0---|


 PM------------------------------------------------------------------------|
   |--3--|   |--3--|    |--3--|   |--3--|    |--3--|   |--3--|
 E E E E  E E E E E  E  E E E E  E E E E E  E  E E E E  E E E E E  E
|-------------------------|-------------------------|-------------------------|
|-------------------------|-------------------------|-------------------------|
|-------------------------|-------------------------|-------------------------|
|-------------------------|-------------------------|-------------------------|
|-----------2-----------2-|-----------2-----------2-|-----------2-----------2-|
|-0-0-3h4-----0-0-3h4-----|-0-0-3h4-----0-0-3h4-----|-0-0-3h4-----0-0-3h4-----|
|
| E E E  E  E E E  E   E E E  E  E E E  E   E E E  E  E E E  E
|-0-0-3---0---0-0-3---0---|-0-0-3---0---0-0-3---0---|-0-0-3---0---0-0-3---0---|
|-0-0-0---0---0-0-0---0---|-0-0-0---0---0-0-0---0---|-0-0-0---0---0-0-0---0---|
|-1-1-1---1---1-1-1---1---|-1-1-1---1---1-1-1---1---|-1-1-1---1---1-1-1---1---|
|-2-2-2---2---2-2-2---2---|-2-2-2---2---2-2-2---2---|-2-2-2---2---2-2-2---2---|
|-2-2-2---2---2-2-2---2---|-2-2-2---2---2-2-2---2---|-2-2-2---2---2-2-2---2---|
|-0-0-0---0---0-0-0---0---|-0-0-0---0---0-0-0---0---|-0-0-0---0---0-0-0---0---|


              Chorus
               A
 PM-------------------------------------------------------------------------|
   |--3--|   |--3--|    |--3--|   |--3--|    |--3--|   |--3--|
 E E E E  E E E E E  E  E E E E  E E E E E  E  E E E E  E E E E E  E
|-------------------------||-------------------------|-------------------------|
|-------------------------||-------------------------|-------------------------|
|-------------------------||-------------------------|-------------------------|
|-------------------------||-----------2-----------2-|-----------2-----------2-|
|-----------2-----------2-||-0-0-3h4-----0-0-3h4-----|-0-0-3h4-----0-0-3h4-----|
|-0-0-3h4-----0-0-3h4-----||-------------------------|-------------------------|
|
| E E E  E  E E E  E   E E E  E  E E E  E   E E E  E  E E E  E
|-0-0-3---0---0-0-3---0---||-0-0-3---0---0-0-3---0---|-0-0-3---0---0-0-3---0---|
|-0-0-0---0---0-0-0---0---||-2-2-2---2---2-2-2---2---|-2-2-2---2---2-2-2---2---|
|-1-1-1---1---1-1-1---1---||-2-2-2---2---2-2-2---2---|-2-2-2---2---2-2-2---2---|
|-2-2-2---2---2-2-2---2---||-2-2-2---2---2-2-2---2---|-2-2-2---2---2-2-2---2---|
|-2-2-2---2---2-2-2---2---||-0-0-0---0---0-0-0---0---|-0-0-0---0---0-0-0---0---|
|-0-0-0---0---0-0-0---0---||-------------------------|-------------------------|


 E                          B7
 PM------------------------------------------------------------------------|
   |--3--|   |--3--|    |--3--|   |--3--|    |--3--|   |--3--|
 E E E E  E E E E E  E  E E E E  E E E E E  E  E E E E  E E E E E  E
|-------------------------|-------------------------|-------------------------|
|-------------------------|-------------------------|-------------------------|
|-------------------------|-------------------------|-------------------------|
|-------------------------|-------------------------|-----0h1---4-----0h1---4-|
|-----------2-----------2-|-----------2-----------2-|-2-2---------2-2---------|
|-0-0-3h4-----0-0-3h4-----|-0-0-3h4-----0-0-3h4-----|-------------------------|
|
| E E E  E  E E E  E   E E E  E  E E E  E   E E E  E  E E E  E
|-0-0-3---0---0-0-3---0---|-0-0-3---0---0-0-3---0---|-2-2-2---2---2-3-3---0---|
|-0-0-0---0---0-0-0---0---|-0-0-0---0---0-0-0---0---|-0-0-0---0---0-0-0---0---|
|-1-1-1---1---1-1-1---1---|-1-1-1---1---1-1-1---1---|-2-2-2---2---2-2-2---0---|
|-2-2-2---2---2-2-2---2---|-2-2-2---2---2-2-2---2---|-1-1-1---1---1-1-1---1---|
|-2-2-2---2---2-2-2---2---|-2-2-2---2---2-2-2---2---|-2-2-2---2---2-2-2---0---|
|-0-0-0---0---0-0-0---0---|-0-0-0---0---0-0-0---0---|-------------------------|


 A             E
 PM------------------------------------------------------------------------|
   |--3--|   |--3--|    |--3--|   |--3--|    |--3--|   |--3--|
 E E E E  E E E E E  E  E E E E  E E E E E  E  E E E E  E E E E E  E
|-------------------------|-------------------------|-------------------------||
|-------------------------|-------------------------|-------------------------||
|-------------------------|-------------------------|-------------------------||
|-----------2-----------2-|-------------------------|-------------------------||
|-0-0-3h4-----0-0-3h4-----|-----------2-----------2-|-----------2-----------2-||
|-------------------------|-0-0-3h4-----0-0-3h4-----|-0-0-3h4-----0-0-3h4-----||
|
| E E E  E  E E E  E   E E E  E  E E E  E   E E E  E  E E E  E
|-0-0-3---0---0-0-3---0---|-0-0-3---0---0-0-3---0---|-0-0-3---0---0-0-3---0---||
|-2-2-2---2---2-2-2---2---|-0-0-0---0---0-0-0---0---|-0-0-0---0---0-0-0---0---||
|-2-2-2---2---2-2-2---2---|-1-1-1---1---1-1-1---1---|-1-1-1---1---1-1-1---1---||
|-2-2-2---2---2-2-2---2---|-2-2-2---2---2-2-2---2---|-2-2-2---2---2-2-2---2---||
|-0-0-0---0---0-0-0---0---|-2-2-2---2---2-2-2---2---|-2-2-2---2---2-2-2---2---||
|-------------------------|-0-0-0---0---0-0-0---0---|-0-0-0---0---0-0-0---0---||


  2nd & 3rd Verses
  E
  PM-----------------------
    |--3--|   |--3--|
  E E E E  E E E E E  E
||--------------------------|
||o-------------------------|
||--------------------------|
||--------------------------|
||o-----------2-----------2-|
||--0-0-3h4-----0-0-3h4-----|
|
|  E E E  E  E E E  E
||--0-0-3---0---0-0-3---0---|
||o-0-0-0---0---0-0-0---0---|
||--1-1-1---1---1-1-1---1---|
||--2-2-2---2---2-2-2---2---|
||o-2-2-2---2---2-2-2---2---|
||--0-0-0---0---0-0-0---0---|


 -------------------------------------------------|
   |--3--|   |--3--|    |--3--|   |--3--|
 E E E E  E E E E E  E  E E E E  E E E E E  E
|-------------------------|--------------------------|
|-------------------------|--------------------------|
|-------------------------|--------------------------|
|-------------------------|--------------------------|
|-----------2-----------2-|-----------2-----------2--|
|-0-0-3h4-----0-0-3h4-----|-0-0-3h4-----0-0-3h4------|
|
| E E E  E  E E E  E   E E E  E  E E E  E
|-0-0-3---0---0-0-3---0---|-0-0-3---0---0-0-3---0----|
|-0-0-0---0---0-0-0---0---|-0-0-0---0---0-0-0---0----|
|-1-1-1---1---1-1-1---1---|-1-1-1---1---1-1-1---1----|
|-2-2-2---2---2-2-2---2---|-2-2-2---2---2-2-2---2----|
|-2-2-2---2---2-2-2---2---|-2-2-2---2---2-2-2---2----|
|-0-0-0---0---0-0-0---0---|-0-0-0---0---0-0-0---0----|


 PM------------------------------------------------------------------------|
   |--3--|   |--3--|    |--3--|   |--3--|    |--3--|   |--3--|
 E E E E  E E E E E  E  E E E E  E E E E E  E  E E E E  E E E E E  E
|-------------------------|-------------------------|-------------------------|
|-------------------------|-------------------------|-------------------------|
|-------------------------|-------------------------|-------------------------|
|-------------------------|-------------------------|-------------------------|
|-----------2-----------2-|-----------2-----------2-|-----------2-----------2-|
|-0-0-3h4-----0-0-3h4-----|-0-0-3h4-----0-0-3h4-----|-0-0-3h4-----0-0-3h4-----|
|
| E E E  E  E E E  E   E E E  E  E E E  E   E E E  E  E E E  E
|-0-0-3---0---0-0-3---0---|-0-0-3---0---0-0-3---0---|-0-0-3---0---0-0-3---0---|
|-0-0-0---0---0-0-0---0---|-0-0-0---0---0-0-0---0---|-0-0-0---0---0-0-0---0---|
|-1-1-1---1---1-1-1---1---|-1-1-1---1---1-1-1---1---|-1-1-1---1---1-1-1---1---|
|-2-2-2---2---2-2-2---2---|-2-2-2---2---2-2-2---2---|-2-2-2---2---2-2-2---2---|
|-2-2-2---2---2-2-2---2---|-2-2-2---2---2-2-2---2---|-2-2-2---2---2-2-2---2---|
|-0-0-0---0---0-0-0---0---|-0-0-0---0---0-0-0---0---|-0-0-0---0---0-0-0---0---|


                           Chorus
                            A
 PM-------------------------------------------------------------------------|
   |--3--|   |--3--|    |--3--|   |--3--|    |--3--|   |--3--|
 E E E E  E E E E E  E  E E E E  E E E E E  E  E E E E  E E E E E  E
|-------------------------|-------------------------||-------------------------|
|-------------------------|-------------------------||-------------------------|
|-------------------------|-------------------------||-------------------------|
|-------------------------|-------------------------||-----------2-----------2-|
|-----------2-----------2-|-----------2-----------2-||-0-0-3h4-----0-0-3h4-----|
|-0-0-3h4-----0-0-3h4-----|-0-0-3h4-----0-0-3h4-----||-------------------------|
|
| E E E  E  E E E  E   E E E  E  E E E  E   E E E  E  E E E  E
|-0-0-3---0---0-0-3---0---|-0-0-3---0---0-0-3---0---||-0-0-3---0---0-0-3---0---|
|-0-0-0---0---0-0-0---0---|-0-0-0---0---0-0-0---0---||-2-2-2---2---2-2-2---2---|
|-1-1-1---1---1-1-1---1---|-1-1-1---1---1-1-1---1---||-2-2-2---2---2-2-2---2---|
|-2-2-2---2---2-2-2---2---|-2-2-2---2---2-2-2---2---||-2-2-2---2---2-2-2---2---|
|-2-2-2---2---2-2-2---2---|-2-2-2---2---2-2-2---2---||-0-0-0---0---0-0-0---0---|
|-0-0-0---0---0-0-0---0---|-0-0-0---0---0-0-0---0---||-------------------------|


              E
 PM------------------------------------------------------------------------|
   |--3--|   |--3--|    |--3--|   |--3--|    |--3--|   |--3--|
 E E E E  E E E E E  E  E E E E  E E E E E  E  E E E E  E E E E E  E
|-------------------------|-------------------------|-------------------------|
|-------------------------|-------------------------|-------------------------|
|-------------------------|-------------------------|-------------------------|
|-----------2-----------2-|-------------------------|-------------------------|
|-0-0-3h4-----0-0-3h4-----|-----------2-----------2-|-----------2-----------2-|
|-------------------------|-0-0-3h4-----0-0-3h4-----|-0-0-3h4-----0-0-3h4-----|
|
| E E E  E  E E E  E   E E E  E  E E E  E   E E E  E  E E E  E
|-0-0-3---0---0-0-3---0---|-0-0-3---0---0-0-3---0---|-0-0-3---0---0-0-3---0---|
|-2-2-2---2---2-2-2---2---|-0-0-0---0---0-0-0---0---|-0-0-0---0---0-0-0---0---|
|-2-2-2---2---2-2-2---2---|-1-1-1---1---1-1-1---1---|-1-1-1---1---1-1-1---1---|
|-2-2-2---2---2-2-2---2---|-2-2-2---2---2-2-2---2---|-2-2-2---2---2-2-2---2---|
|-0-0-0---0---0-0-0---0---|-2-2-2---2---2-2-2---2---|-2-2-2---2---2-2-2---2---|
|-------------------------|-0-0-0---0---0-0-0---0---|-0-0-0---0---0-0-0---0---|


 B7            A             E
 PM------------------------------------------------------------------------|
   |--3--|   |--3--|    |--3--|   |--3--|    |--3--|   |--3--|
 E E E E  E E E E E  E  E E E E  E E E E E  E  E E E E  E E E E E  E
|-------------------------|-------------------------|-------------------------|
|-------------------------|-------------------------|-------------------------|
|-------------------------|-------------------------|-------------------------|
|-----0h1---4-----0h1---4-|-----------2-----------2-|-------------------------|
|-2-2---------2-2---------|-0-0-3h4-----0-0-3h4-----|-----------2-----------2-|
|-------------------------|-------------------------|-0-0-3h4-----0-0-3h4-----|
|
| E E E  E  E E E  E   E E E  E  E E E  E   E E E  E  E E E  E
|-2-2-2---2---2-3-3---0---|-0-0-3---0---0-0-3---0---|-0-0-3---0---0-0-3---0---|
|-0-0-0---0---0-0-0---0---|-2-2-2---2---2-2-2---2---|-0-0-0---0---0-0-0---0---|
|-2-2-2---2---2-2-2---0---|-2-2-2---2---2-2-2---2---|-1-1-1---1---1-1-1---1---|
|-1-1-1---1---1-1-1---1---|-2-2-2---2---2-2-2---2---|-2-2-2---2---2-2-2---2---|
|-2-2-2---2---2-2-2---0---|-0-0-0---0---0-0-0---0---|-2-2-2---2---2-2-2---2---|
|-------------------------|-------------------------|-0-0-0---0---0-0-0---0---|


              Interlude
               E
 PM-------------------------------------------------------------------------|
   |--3--|   |--3--|    |--3--|   |--3--|    |--3--|   |--3--|
 E E E E  E E E E E  E  E E E E  E E E E E  E  E E E E  E E E E E  E
|-------------------------||-------------------------|-------------------------|
|-------------------------||-------------------------|-------------------------|
|-------------------------||-------------------------|-------------------------|
|-------------------------||-------------------------|-------------------------|
|-----------2-----------2-||-----------2-----------2-|-----------2-----------2-|
|-0-0-3h4-----0-0-3h4-----||-0-0-3h4-----0-0-3h4-----|-0-0-3h4-----0-0-3h4-----|
|
| E E E  E  E E E  E   E E E  E  E E E  E   E E E  E  E E E  E
|-0-0-3---0---0-0-3---0---||-0-0-3---0---0-0-3---0---|-0-0-3---0---0-0-3---0---|
|-0-0-0---0---0-0-0---0---||-0-0-0---0---0-0-0---0---|-0-0-0---0---0-0-0---0---|
|-1-1-1---1---1-1-1---1---||-1-1-1---1---1-1-1---1---|-1-1-1---1---1-1-1---1---|
|-2-2-2---2---2-2-2---2---||-2-2-2---2---2-2-2---2---|-2-2-2---2---2-2-2---2---|
|-2-2-2---2---2-2-2---2---||-2-2-2---2---2-2-2---2---|-2-2-2---2---2-2-2---2---|
|-0-0-0---0---0-0-0---0---||-0-0-0---0---0-0-0---0---|-0-0-0---0---0-0-0---0---|


                           A
 PM------------------------------------------------------------------------|
   |--3--|   |--3--|    |--3--|   |--3--|    |--3--|   |--3--|
 E E E E  E E E E E  E  E E E E  E E E E E  E  E E E E  E E E E E  E
|-------------------------|-------------------------|-------------------------|
|-------------------------|-------------------------|-------------------------|
|-------------------------|-------------------------|-------------------------|
|-------------------------|-------------------------|-----------2-----------2-|
|-----------2-----------2-|-----------2-----------2-|-0-0-3h4-----0-0-3h4-----|
|-0-0-3h4-----0-0-3h4-----|-0-0-3h4-----0-0-3h4-----|-------------------------|
|
| E E E  E  E E E  E   E E E  E  E E E  E   E E E  E  E E E  E
|-0-0-3---0---0-0-3---0---|-0-0-3---0---0-0-3---0---|-0-0-3---0---0-0-3---0---|
|-0-0-0---0---0-0-0---0---|-0-0-0---0---0-0-0---0---|-2-2-2---2---2-2-2---2---|
|-1-1-1---1---1-1-1---1---|-1-1-1---1---1-1-1---1---|-2-2-2---2---2-2-2---2---|
|-2-2-2---2---2-2-2---2---|-2-2-2---2---2-2-2---2---|-2-2-2---2---2-2-2---2---|
|-2-2-2---2---2-2-2---2---|-2-2-2---2---2-2-2---2---|-0-0-0---0---0-0-0---0---|
|-0-0-0---0---0-0-0---0---|-0-0-0---0---0-0-0---0---|-------------------------|


              E
 PM------------------------------------------------------------------------|
   |--3--|   |--3--|    |--3--|   |--3--|    |--3--|   |--3--|
 E E E E  E E E E E  E  E E E E  E E E E E  E  E E E E  E E E E E  E
|-------------------------|-------------------------|-------------------------|
|-------------------------|-------------------------|-------------------------|
|-------------------------|-------------------------|-------------------------|
|-----------2-----------2-|-------------------------|-------------------------|
|-0-0-3h4-----0-0-3h4-----|-----------2-----------2-|-----------2-----------2-|
|-------------------------|-0-0-3h4-----0-0-3h4-----|-0-0-3h4-----0-0-3h4-----|
|
| E E E  E  E E E  E   E E E  E  E E E  E   E E E  E  E E E  E
|-0-0-3---0---0-0-3---0---|-0-0-3---0---0-0-3---0---|-0-0-3---0---0-0-3---0---|
|-2-2-2---2---2-2-2---2---|-0-0-0---0---0-0-0---0---|-0-0-0---0---0-0-0---0---|
|-2-2-2---2---2-2-2---2---|-1-1-1---1---1-1-1---1---|-1-1-1---1---1-1-1---1---|
|-2-2-2---2---2-2-2---2---|-2-2-2---2---2-2-2---2---|-2-2-2---2---2-2-2---2---|
|-0-0-0---0---0-0-0---0---|-2-2-2---2---2-2-2---2---|-2-2-2---2---2-2-2---2---|
|-------------------------|-0-0-0---0---0-0-0---0---|-0-0-0---0---0-0-0---0---|


 B7            A             E
 PM------------------------------------------------------------------------|
   |--3--|   |--3--|    |--3--|   |--3--|    |--3--|   |--3--|
 E E E E  E E E E E  E  E E E E  E E E E E  E  E E E E  E E E E E  E
|-------------------------|-------------------------|-------------------------|
|-------------------------|-------------------------|-------------------------|
|-------------------------|-------------------------|-------------------------|
|-----0h1---4-----0h1---4-|-----------2-----------2-|-------------------------|
|-2-2---------2-2---------|-0-0-3h4-----0-0-3h4-----|-----------2-----------2-|
|-------------------------|-------------------------|-0-0-3h4-----0-0-3h4-----|
|
| E E E  E  E E E  E   E E E  E  E E E  E   E E E  E  E E E  E
|-2-2-2---2---2-3-3---0---|-0-0-3---0---0-0-3---0---|-0-0-3---0---0-0-3---0---|
|-0-0-0---0---0-0-0---0---|-2-2-2---2---2-2-2---2---|-0-0-0---0---0-0-0---0---|
|-2-2-2---2---2-2-2---0---|-2-2-2---2---2-2-2---2---|-1-1-1---1---1-1-1---1---|
|-1-1-1---1---1-1-1---1---|-2-2-2---2---2-2-2---2---|-2-2-2---2---2-2-2---2---|
|-2-2-2---2---2-2-2---0---|-0-0-0---0---0-0-0---0---|-2-2-2---2---2-2-2---2---|
|-------------------------|-------------------------|-0-0-0---0---0-0-0---0---|


 PM-------------------------
   |--3--|   |--3--|
 E E E E  E E E E E  E
|--------------------------||
|-------------------------o||
|--------------------------||
|--------------------------||
|-----------2-----------2-o||
|-0-0-3h4-----0-0-3h4------||
|
| E E E  E  E E E  E
|-0-0-3---0---0-0-3---0----||
|-0-0-0---0---0-0-0---0---o||
|-1-1-1---1---1-1-1---1----||
|-2-2-2---2---2-2-2---2----||
|-2-2-2---2---2-2-2---2---o||
|-0-0-0---0---0-0-0---0----||


 Outro
 E
 -------------------------------------------------|
   |--3--|   |--3--|    |--3--|   |--3--|
 E E E E  E E E E E  E  E E E E  E E E E E  E
|-------------------------|-------------------------|
|-------------------------|-------------------------|
|-------------------------|-------------------------|
|-------------------------|-------------------------|
|-----------2-----------2-|-----------2-----------2-|
|-0-0-3h4-----0-0-3h4-----|-0-0-3h4-----0-0-3h4-----|
|
| E E E  E  E E E  E   E E E  E  E E E  E
|-0-0-3---0---0-0-3---0---|-0-0-3---0---0-0-3---0---|
|-0-0-0---0---0-0-0---0---|-0-0-0---0---0-0-0---0---|
|-1-1-1---1---1-1-1---1---|-1-1-1---1---1-1-1---1---|
|-2-2-2---2---2-2-2---2---|-2-2-2---2---2-2-2---2---|
|-2-2-2---2---2-2-2---2---|-2-2-2---2---2-2-2---2---|
|-0-0-0---0---0-0-0---0---|-0-0-0---0---0-0-0---0---|


 PM------------------------------------------------------------------------|
   |--3--|   |--3--|    |--3--|   |--3--|    |--3--|   |--3--|
 E E E E  E E E E E  E  E E E E  E E E E E  E  E E E E  E E E E E  E
|-------------------------|-------------------------|-------------------------*|
|-------------------------|-------------------------|-------------------------*|
|-------------------------|-------------------------|-------------------------*|
|-------------------------|-------------------------|-------------------------*|
|-----------2-----------2-|-----------2-----------2-|-----------2-----------2-*|
|-0-0-3h4-----0-0-3h4-----|-0-0-3h4-----0-0-3h4-----|-0-0-3h4-----0-0-3h4-----*|
|
| E E E  E  E E E  E   E E E  E  E E E  E   E E E  E  E E E  E
|-0-0-3---0---0-0-3---0---|-0-0-3---0---0-0-3---0---|-0-0-3---0---0-0-3---0---*|
|-0-0-0---0---0-0-0---0---|-0-0-0---0---0-0-0---0---|-0-0-0---0---0-0-0---0---*|
|-1-1-1---1---1-1-1---1---|-1-1-1---1---1-1-1---1---|-1-1-1---1---1-1-1---1---*|
|-2-2-2---2---2-2-2---2---|-2-2-2---2---2-2-2---2---|-2-2-2---2---2-2-2---2---*|
|-2-2-2---2---2-2-2---2---|-2-2-2---2---2-2-2---2---|-2-2-2---2---2-2-2---2---*|
|-0-0-0---0---0-0-0---0---|-0-0-0---0---0-0-0---0---|-0-0-0---0---0-0-0---0---*|


Duration 🏷Legend
---------------
W - whole; H - half; Q - quarter; E - 8th; S - 16th; T - 32nd; X - 64th; a - acciaccatura
+ - note tied to previous; . - note dotted; .. - note double dotted
Uncapitalized letters represent notes that are staccato (1/2 duration)
Irregular groupings are notated above the duration line
Duration letters will always appear directly above the note/fret number it represents the
duration for. Duration letters with no fret number below them represent rests. Multi-
bar rests are notated in the form Wxn, where n is the number of bars to rest for. Low
melody durations appear below the staff

Tablature 🏷Legend
----------------
 h  - hammer-on
 p  - pull-off
 b  - bend
 pb - pre-bend
 r  - bend release (if no number after the r, then release immediately)
 /\ - slide into or out of (from/to "nowhere")
 s  - legato slide
 S  - shift slide
 - natural harmonic
[n] - artificial harmonic
n(n) - tapped harmonic
 ~  - vibrato
 tr - trill
 T  - tap
 TP - trem. picking
 PM - palm muting
\n/ - tremolo bar dip; n = amount to dip
 \n - tremolo bar down
 n/ - tremolo bar up
/n\ - tremolo bar inverted dip
 =  - hold bend; also acts as connecting device for hammers/pulls
 <> - volume swell (louder/softer)
 x  - on rhythm slash represents muted slash
 o  - on rhythm slash represents single note slash

Misc 🏷Legend
-----------
 | - bar
|| - double bar
||o - repeat start
o|| - repeat end
*| - double bar (ending)
 : - bar (freetime)
 $ - Segno
 & - Coda
Tempo markers - = BPM(8/16=s8/s16), where s8 = swing 8ths, s16 = swing 16ths

Other versions of Ruby Baby

Alternative guitar chords and tabs for Ruby Baby by Dion

Find guitar tabs and chords

A B C D E F G H I J K L M N O P Q R S T U V W X Y Z #