Log in

One click and you are in

Login with Facebook Login with Google

Why sign up and log in

Guitar Tabs Explorer
Dion tabs for Abraham martin and john

Guitar tabs

Written by Dick Holler, who recorded (but didn't write) the original version
of "Double Shot (Of My Baby's Love)" (a no. 18 smash for The Swingin' Medallions
in mid-66), with his band the Holidays. This was Dion's last big hit, peaking
at no. 1.
                          "Abraham, Martin, & John"
                               (Dick Holler)
                                   Dion
                                No. 1, 1968


Intro:

        orchestra [arr. for guitar]:

             A chord diagramE MajorE            A chord diagramG#m7G#m7         A chord diagramF#m7F#m7         A chord diagramE MajorE
        v    v  v  v  v   v  v  v  v   v  v  v  v   v  v  v  v
        ----|------------|------------|------0-----|------------|
        ----|------------|0--------0--|2-----------|0-----------|
        ----|------------|------------|------------|------------|
        ----|2--------2--|------------|------------|------2--4--|
        2---|------------|------------|------------|------------|
        ----|------------|------------|------------|------------|

        A chord diagramE MajorE            A chord diagramBB            A chord diagramA/EA/E
        v  v  v  v   v  v  v  v   v  v  v  v
        ------------|------------|------------|
        ------------|------------|------------|
        1--------1--|------------|------------|
        ------------|4--2--4-----|2--------2--|
        ------------|------------|------4-----|
        ------------|------------|------------|

        band enters:

        [bass]:

        A chord diagramE MajorE
        v   v   v   v    v   v   v   v
        ----------9-----|--9-------------|
        ----6-7-9-----9-|9---9-7-6-------|
        7-9-------------|----------9-7---|
        ----------------|--------------7-|

Verse 1:

        A chord diagramE MajorE         A chord diagramG#m7G#m7  A chord diagramF#m7F#m7                 A chord diagramE MajorE
          Anybody here    seen...            Abraham?
        A chord diagramE MajorE   A chord diagramF#m7F#m7                     A chord diagramG#m7G#m7   A chord diagramB7B7
          Can you...                 gone?
        A chord diagramC# minorC#m                 A chord diagramG# minorG#m            A chord diagramF#m7F#m7      A chord diagramB7B7       A chord diagramE MajorE
          He freed...       people...      seems the good they die...
        A chord diagramF#m7F#m7     A chord diagramB7B7                     A chord diagramE MajorE
          I just looked...              gone
                                        / / / /  / /

Orchestra break [arr. for guitar]:

               A chord diagramE MajorE            A chord diagramBB            A chord diagramA/EA/E          A chord diagramE MajorE
        v  v   v  v  v  v   v  v  v  v   v  v  v  v   v  v  v  v
        ------|------------|------------|------------|------------|
        ------|------------|------------|------------|------------|
        ------|1--------1--|------------|------------|------------|
        2--4--|------------|4--2--4-----|2-----------|2-----------|
        ------|------------|------------|------4-----|------------|
        ------|------------|------------|------------|------------|


Verse 2:

        Anybody here...
        Can you tell...
        He freed a lot...
                                      A chord diagramA/EA/E
        I just looked...              gone
                                      / / / /  / / / /

Organ break [arr. for guitar]:

        A chord diagramE MajorE
        v  v  v  v   v  v  v  v   v  v  v  v   v  v  v  v   v  v  v  v
        ------------|------------|------------|------------|------------|
        ------------|------------|------------|---------0--|2-----0-----|
        ------------|------------|------------|------1-----|------------|
        2-----------|------------|2-----------|------------|------------|
        ------------|------2--4--|------------|------------|------------|
        ------------|------------|------------|------------|------------|

                     A chord diagramA augmentedA                         A chord diagramE MajorE
        v  v  v  v   v  v  v  v   v  v  v  v   v  v  v  v   v  v  v  v
        ------------|------------|------------|------------|------------|
        ------------|------------|------------|------------|------------|
        ------0-----|------------|------0-----|------------|------------|
        ---------4--|2-----------|---------4--|2-----------|------------|
        ------------|------------|------------|------------|------------|
        ------------|------------|------------|------------|------------|


Verse 3:

        Hey anybody here...
        Can you tell...
        He freed a lot...
                                      A chord diagramA/EA/E      A chord diagramE MajorE
        I just looked...              gone
                                      / / / /  / / / /


Bridge:

        A chord diagramA augmentedA            A chord diagramG#m7G#m7        A chord diagramF#m7F#m7         A chord diagramG#m7G#m7
          Didn't you love...     things that they...
        A chord diagramA augmentedA             A chord diagramG#m7G#m7  A chord diagramF#m7F#m7                    A chord diagramE MajorE
          Didn't they try     to find...            you...
            A chord diagramBm7Bm7       A chord diagramD MajorD
        And we'll be free
        A chord diagramA augmentedA     A chord diagramG#m7G#m7 A chord diagramF#m7F#m7
          Someday  soon
             A chord diagramB7B7
        It's gonna...


Verse 4:

        Anybody here...
        Can you tell...
        I thought I saw...
                                  A chord diagramC# minorC#m      A chord diagramA/EA/E
        With Abraham...           John
                                  / / / /  / / / /  / / / /

Coda [repeat to fade]:

        bass:

        A chord diagramE MajorE
        v   v   v   v    v   v   v   v
        ----------9-----|--9-------------|
        ----6-7-9-----9-|9---9-7-6-------|
        7-9-------------|----------9-7---|
        ----------------|--------------7-|


Questions? Comments? E-mail Alex @ springalo430@hotmail.com

Other versions of Abraham Martin And John

Abraham martin and johnChords

Almost there ...

Sign in to get your own page with links to favourite songs and more. You are just one click away...

Login with Facebook Login with Google