Log in

One click and you are in

Login with Facebook Login with Google

Why sign up and log in

Guitar Tabs Explorer
Dio bass tabs for Walk on water

Bass tabs

H    Q  E E   W          H    Q  E E
G||----------------------|-------------------|----------------------|
D||----------------------|-------------------|----------------------|
A||----------------------|-------------------|----------------------|
E||-------------------5--|--L----------------|--L--------L----L--5--|
 W          E E  Q   Q  E E   W
-------------------|---------------------------|-------------------|
-------------------|---------------------------|-------------------|
-------------------|---------------------------|-------------------|
--L----------------|--L--5s--1----/10----8--5--|--L----------------|


 Q.   Q.    E  E   W          Q   E  E  Q   E  E
-------------------------|-------------------|------------------------------|
-------------------------|-------------------|------------------------------|
---------------------12--|--L----------------|--L----12s--19----------------|
--L------5s------12------|-------------------|----------------17s----1s--5--|


 E E Q  E E Q    E E Q  E E E E   E E Q  E E Q
------------------------|-------------------------|------------------------|
------------------------|-------------------------|------------------------|
------------------------|-------------------------|------------------------|
--L--5--5----5--5--5----|--5--5--5----5--5--5--5--|--L--5--5----5--5--5----|


 E E  E E  E  E E E   E E Q  E E Q
-----------------------------|------------------------|
-----------------------------|------------------------|
-----------------------------|------------------------|
--5--1s--5--5s--8s--5--3--5--|--L--5--5----5--5--5----|


 E E Q  E E E E   E E Q  E E Q    E  E Q  E E E E
-------------------------|------------------------|--------------------------|
-------------------------|------------------------|--------------------------|
-------------------------|------------------------|--------------------------|
--5--5--5----5--0--3--5--|--L--5--5----5--5--5----|--8--11--8----8--8--3--5--|

 E E E E E E E E   E E E E E E E E
--------------------------|--------------------------|
--------------------------|--------7--7--------------|
--------------------------|--------------------------|
--L--5--5-----5--5--5-----|--5--5--------5--5--5--5--|


 E E E E E E E  E   Q  Q  Q  E E   W
---------------------------|-----------------------|-------------------|
-----7-----7---------------|-----------------------|-------------------|
--------------------3s--5--|-----------------------|-------------------|
--L-----5-----5--5---------|--1----1----3----3--0--|--L----------------|


 H    E E E E   E E Q  E E Q    E E Q  E E E E
-----------------------|------------------------|-------------------------|
-----------------------|------------------------|-------------------------|
-----------3--2--------|------------------------|-------------------------|
--L--------------3--5--|--L--5--5----5--5--5----|--5--5--5----5--5--5--5--|


 E E Q  E E Q    E E Q  E E E E   E E Q  E E Q
------------------------|-------------------------|------------------------|
------------------------|-------------------------|------------------------|
------------------------|-------------3--2--------|------------------------|
--L--5--5----5--5--5----|--5--5--5----------3--5--|--L--5--5----5--5--5----|


 E E Q  E E E E   E E Q  E E Q    E E Q  E E E E
-------------------------|------------------------|-------------------------|
-------------------------|------------------------|-------------------------|
-------------------------|------------------------|--3--3--3----2--2--------|
--5--5--5----5--5--5--5--|--L--5--5----5--5--5----|-------------------3--5--|


 E E Q  E E Q    E E Q  E E E E   E E Q  E E Q
------------------------|-------------------------|------------------------|
------------------------|-------------------------|------------------------|
------------------------|-------------------------|------------------------|
--L--5--5----5--5--5----|--5--5--5----5--5--5--5--|--L--5--5----5--5--5----|


 E E E E E E E E   E E Q  E E Q    E E Q  E E E E
--------------------------|------------------------|-------------------------|
--------------------------|------------------------|-------------------------|
--------------------------|------------------------|-------------------------|
--5--0--3--5--5--5--3--5--|--L--5--5----5--5--5----|--5--5--5----5--5--5--5--|


 E E Q  E E Q    E E E E E E E E   E E Q  E E E E
------------------------|--------------------------|-------------------------|
------------------------|-----------5--------------|-------------------------|
------------------------|--3--5--7-----7--5--3-----|-------------------------|
--L--5--5----5--5--5----|-----------------------5--|--L--5--5----5--5--3--5--|


 E E Q  E E E E   E E Q  E E Q    H    Q  E E
-------------------------|------------------------|----------------------|
-------------------------|------------------------|----------------------|
-------------------------|-------------------3----|----------------------|
--L--5--5----5--5--3--5--|--L--5--5----5--0-------|--1--------3----0--5--|


 E E Q  E E  E  E   W          H    S S E E E
----------------------------|--------------------|-------------------------|
----------------------------|--------------------|-------------------------|
----------------------------|--12----------------|---L--------L------------|
--L--L--5----5--5s--8s--10--|--------------------|--------------5-3--1--0--|


 W          Q  E E E E E E   E E Q  E E Q
-------------------|-------------------------|------------------------|
-------------------|-------------------------|------------------------|
-------------------|-------3-----3--2--------|------------------------|
--L----------------|--L----------------3--5--|--L--5--5----5--5--5----|


 E E Q  E E E E   E E Q  E E Q    E E E E E E E E
-------------------------|------------------------|--------------------------|
-------------------------|------------------------|--------------------------|
-------------------------|------------------------|--------------3--2--------|
--5--5--5----5--0--3--5--|--L--5--5----5--5--5----|--5--0--3--5--------3--5--|


 E E Q  E E Q    E E Q  E E E E   E E Q  E E E E
------------------------|-------------------------|-------------------------|
------------------------|-------------------------|-------------------------|
------------------------|-------------------------|-------------------5--3--|
--L--5--5----5--5--5----|--5--5--5----5--0--3--5--|--L--5--5----5--5--------|


 E E E E E E E E   E E Q  E E Q    E E Q  E E E E
--------------------------|------------------------|-------------------------|
--------------------------|------------------------|-------------------------|
--5--7--L--7--6--5--3--0--|------------------------|-------------------------|
--------------------------|--L--5--5----5--5--5----|--5--5--5----5--5--5--5--|


 E E Q  E E Q    E E Q  E E E E   E E Q  E E Q
------------------------|-------------------------|------------------------|
------------------------|-------------------------|------------------------|
------------------------|-------------3--2--------|------------------------|
--L--5--5----5--5--5----|--5--5--5----------3--5--|--L--5--5----5--5--5----|


 E E Q  E E E E   E E Q  E E Q    E E Q  E E E E
-------------------------|------------------------|-------------------------|
-------------------------|------------------------|-------------------------|
-------------------------|------------------------|--3--3--3----2--2--------|
--5--5--5----5--5--5--5--|--L--5--5----5--5--5----|-------------------3--5--|


 E E Q  E E Q    E E Q  E E E E   E E Q  E E Q
------------------------|-------------------------|------------------------|
------------------------|-------------------------|------------------------|
------------------------|-------------------------|------------------------|
--L--5--5----5--5--5----|--5--5--5----5--5--5--5--|--L--5--5----5--5--5----|


 E E E E E E E E   E E Q  E E Q    E E Q  E E E E
--------------------------|------------------------|-------------------------|
--------------------------|------------------------|-------------------------|
--------------------------|------------------------|-------------------------|
--5--0--3--5--5--5--3--5--|--L--5--5----5--5--5----|--5--5--5----5--5--5--5--|


 E E Q  E E Q    E E E E E E E E   E E Q  E E E E
------------------------|--------------------------|-------------------------|
------------------------|-----------5--------------|-------------------------|
------------------------|--3--5--7-----7--5--3-----|-------------------------|
--L--5--5----5--5--5----|-----------------------5--|--L--5--5----5--5--3--5--|


 E E Q  E E E E   E E Q  E E Q    H    Q  E E
-------------------------|------------------------|----------------------|
-------------------------|------------------------|----------------------|
-------------------------|-------------------3----|----------------------|
--L--5--5----5--5--3--5--|--L--5--5----5--0-------|--1--------3----0--5--|


 E E Q  E E  E  E   W          H     Q.   E
----------------------------|--------------------|------------------------|
----------------------------|--------------------|------------------------|
----------------------------|--12----------------|---L--------------------|
--L--L--5----5--5s--8s--10--|--------------------|------------12\------0--|


 W          H    Q   E E   W
-------------------|-----------------------|-------------------|
-------------------|-----------------------|-------------------|
-------------------|-----------------------|-------------------|
--L----------------|--L--------1s----5--0--|--L----------------|


  Q   Q  E E E E   E E Q  E E Q    E E E E E E E E
--------------------------|------------------------|--------------------------|
--------------------------|------------------------|--------------------------|
--10----10----7--5--3-----|------------------------|--------------------------|
-----------------------5--|--L--5--5----5--5--5----|--5--5--5--L--5--0--3--5--|


 E E Q  E E Q    E E E E E E E E   E E Q  E E Q
------------------------|--------------------------|------------------------|
------------------------|--------------------------|------------------------|
------------------------|--------------3--0--------|------------------------|
--L--5--5----5--5--5----|--5--0--3--5--------3--5--|--L--5--5----5--5--5----|


 E E E E E E E E   E E Q  E E E E   E E E E E E E E
--------------------------|-------------------------|--------------------------|
--------------------------|-------------------------|--------------------------|
--------------------------|----------------5--5--3--|--5--7--L--7--6--5--3--5--|
--5--5--5--L--5--0--3--5--|--L--5--5----5-----------|--------------------------|


 E E E E E E E E   E E E E E E E E
--------------------------|--------------------------|
--------------------------|--------------------------|
--L--5--5--5--5--5--5--5--|--5--5--5--5--5--5--5--5--|
--------------------------|--------------------------|


 E E E E E E E E   E E E E E E E E
--------------------------|--------------------------|
--------------------------|--------------3--0--------|
--L--5--5--5--5--5--5--5--|--5--0--3--5--------3--5--|
--------------------------|--------------------------|


 E E E E E E E E   E E E E E E E E
--------------------------|--------------------------|
--------------------------|--------------------------|
--L--5--5--5--5--5--5--5--|--5--5--5--5--5--5--5--5--|
--------------------------|--------------------------|


 E E E E E E E E   E E E E E E E E
--------------------------|--------------------------|
--------------------------|--3--5--3--3--2--L--------|
--L--5--5--5--5--5--5--5--|--------------------3--5--|
--------------------------|--------------------------|


 E E E E E E E E   E E E E E E E E
--------------------------|--------------------------|
--------------------------|--------------------------|
--L--5--5--5--5--5--5--5--|--5--5--5--5--5--5--5--5--|
--------------------------|--------------------------|


 E E E E E E E E   E E E E E E E E
--------------------------|--------------------------|
--------------------------|--------------3--0--------|
--L--5--5--5--5--5--5--5--|--5--5--5--5--------3--5--|
--------------------------|--------------------------|


 E E E E E E E E   E E E E E E E E
--------------------------|--------------------------|
--------------------------|--------------------------|
--L--5--5--L--5--5--5--L--|--5--5--5--L--5--5--5--L--|
--------------------------|--------------------------|


 E E E E E E E E   E E E E E E E E
--------------------------|--------------------------|
--------------------------|--------------5--3--L-----|
--5--5--5--L--5--5--5--L--|--5--5--5--5-----------3--|
--------------------------|--------------------------|


 E E E E E E E E   E E E E E E E E
--------------------------|--------------------------|
--------------------------|--------------------------|
--L--3--3--3--3--3--3--3--|--3--3--3--3--3--3--3--3--|
--------------------------|--------------------------|


 E E E E E E E E   E E E E E E E E
--------------------------|--------------------------|
--------------------------|--------------------------|
--3--3--3--3--3--3--3--3--|--3--3--3--3--3--3--3--1--|
--------------------------|--------------------------|


 E E E E E E E E   E E E E E E E E
--------------------------|--------------------------|
--------------------------|--------------------------|
--L--1--1--1--1--1--1--1--|--1--1--1--1--1--1--1--1--|
--------------------------|--------------------------|


 E E E E E E E E   E E E E E E E E
--------------------------|--------------------------|
--------------------------|--------------------------|
--1--1--1--1--1--1--1--1--|--1--1--1--1--1--1--------|
--------------------------|--------------------3--0--|


 E E E E E E E E   E E E E E E E E
--------------------------|--------------------------|
--------------------------|--------------------------|
--------------------------|--------------5-----5--7--|
--L--0--0--0--0--0--0--0--|--0--0--5--7-----7--------|


       |--3--|
 Q  E E E E E Q     E  E S S E E E E E
----------------------------|--14--12--L--L\-L--L-----------|
-------7--5-----5-----------|-------------------------------|
--L----------7-----7--L/----|-------------------------------|
----------------------------|----------------------0--3--5--|


 E E Q  E E Q    E E Q  E E E E   E E Q  E E Q
------------------------|-------------------------|------------------------|
------------------------|-------------------------|------------------------|
------------------------|-------------------------|------------------------|
--L--5--5----5--5--5----|--5--5--5----5--0--3--5--|--L--5--5----5--5--5----|


 E E E E E E E E   E E Q  E E Q    E E Q  E E E E
--------------------------|------------------------|-------------------------|
--------------------------|------------------------|-------------------------|
--------------3--0--------|------------------------|-------------------------|
--5--0--3--5--------3--5--|--L--5--5----5--5--5----|--5--5--5----5--0--3--5--|


 E E Q  E E E E   E E E E E E E E   E E Q  E E Q
-------------------------|--------------------------|------------------------|
-------------------------|--------------------------|------------------------|
-------------------------|--5--3--3--3--3--3--------|------------------------|
--L--5--5----5--0--3--5--|--------------------3--5--|--L--5--5----5--5--5----|


 E E Q  E E E E   E E Q  E E Q    E E Q  E E E E
-------------------------|------------------------|-------------------------|
-------------------------|------------------------|-------------------------|
-------------------------|------------------------|-------------3--2--------|
--5--5--5----5--5--5--5--|--L--5--5----5--5--5----|--5--5--5----------3--5--|


 E E Q  E E Q    E E Q  E E E E   E E Q  E E Q
------------------------|-------------------------|------------------------|
------------------------|-------------------------|------------------------|
------------------------|-------------------------|------------------------|
--L--5--5----5--5--5----|--5--5--5----5--5--5--5--|--L--5--5----5--5--5----|


 E E Q  E E E E   E E Q  E E Q    E E Q  E E E E
-------------------------|------------------------|-------------------------|
-------------------------|------------------------|-------------------------|
--3--3--3----2--2--------|------------------------|-------------------------|
-------------------3--5--|--L--5--5----5--5--5----|--5--5--5----5--5--5--5--|


 E E Q  E E Q    E E E E E E E E   E E Q  E E Q
------------------------|--------------------------|------------------------|
------------------------|--------------------------|------------------------|
------------------------|--------------3--2--------|------------------------|
--L--5--5----5--5--5----|--5--0--3--5--------3--5--|--L--5--5----5--5--5----|


 E E Q  E E E E   E E Q  E E E E   E E E E E E E E
-------------------------|-------------------------|--------------------------|
-------------------------|-------------------------|-----7--5-----------------|
-------------------------|----------------5--3--5--|--3--------7--6--5--3-----|
--5--5--5----5--5--5--5--|--L--5--5----5-----------|-----------------------5--|


 Q  Q  E E E E   Q  Q  E E E E   Q  Q  E E Q
------------------------|------------------------|-----------------------|
------------------------|------------------------|-----------------------|
------------------------|------------------------|------------------3----|
--L----5----5--5--3--5--|--L----5----5--0--3--5--|--L----5----5--0-------|


 H    Q  E E   E E Q  E E E E   Q  Q  E E E E
----------------------|-------------------------|------------------------|
----------------------|-------------------------|------------------------|
----------------------|-------------------------|------------------------|
--1--------3----0--5--|--L--L--5----5--5--5--5--|--L----5----5--5--3--5--|


 E E Q  E E E E   H    Q  E E   E E Q  E E E E
-------------------------|----------------------|-------------------------|
-------------------------|----------------------|----------------------7--|
-------------------------|----------------------|-------------------------|
--L--L--5----5--5--5--5--|--1--------3----0--5--|--L--L--5----5--5--5-----|


      |--3--|
 Q  Q  E E E E E   E E Q  E E E E   H    Q  E E
---------------------------|-------------------------|----------------------|
--L----7----5--7--5--------|-------------------------|----------------------|
---------------------7-----|----------------5--3-----|----------------------|
------------------------5--|--L--L--5----5--------5--|--1--------3----0--5--|


 Q  Q  E E E E   Q.   E Q.   E   Q  E E E S S E E
------------------------|----------------------|--------------------------|
---------------------5--|--7------7--7------7--|--7----L--5--7--7-5-------|
---------------5--7-----|----------------------|--------------------7-----|
--L----5----5-----------|----------------------|-----------------------0--|


 W          H    E  E  E E   W
-------------------|--------------------------|-------------------|
-------------------|--------------------------|-------------------|
-------------------|--------------------------|-------------------|
--L----------------|--L--------5s--8s--12--0--|--L----------------|


 Q  E E E E E E   E E Q  E E Q    E E Q  E E E E
-------------------------|------------------------|-------------------------|
-------------------------|------------------------|-------------------------|
-------3-----3--2--------|------------------------|-------------------------|
--L----------------3--5--|--L--5--5----5--5--5----|--5--5--5----5--0--3--5--|


 E E Q  E E Q    E E E E E E E E   E E Q  E E Q
------------------------|--------------------------|------------------------|
------------------------|--------------------------|------------------------|
------------------------|--------------3--0--------|------------------------|
--L--5--5----5--5--5----|--5--0--3--5--------3--5--|--L--5--5----5--5--5----|


 E E Q  E E E E   E E Q  E E E E   E E E E E E E E
-------------------------|-------------------------|--------------------------|
-------------------------|-------------------------|--------5-----------------|
-------------------------|----------------3--5--3--|--5--7-----7--6--5--3-----|
--5--5--5----5--0--3--5--|--L--5--5----5-----------|-----------------------5--|


 E E Q  E E E E   E E Q  E E E E   E E E E E E E E
-------------------------|-------------------------|--------------------------|
-------------------------|-------------------------|--------------------------|
-------------------------|-------------------------|--------------------3-----|
--L--5--5----5--5--5--5--|--5--5--5----5--0--3--5--|--L--0--3--5--5--0-----5--|


 E E Q  E E E E   E E Q  E E Q    E E Q  E E E E
-------------------------|------------------------|-------------------------|
-------------------------|------------------------|-------------------------|
--------3----------------|------------------------|-------------------------|
--L--0-------5--0--3--5--|--L--5--5----5--5--5----|--5--5--5----5--0--3--5--|


 E E Q  E E Q    E E E E E E E E   E E Q  E E Q
------------------------|--------------------------|------------------------|
------------------------|--------------------------|------------------------|
------------------------|--------------3--0--------|------------------------|
--L--5--5----5--5--5----|--5--0--3--5--------3--5--|--L--5--5----5--5--5----|


 E E Q  E E E E   E E Q  E E Q    E E Q  Q  E E
-------------------------|------------------------|------------------------|
-------------------------|------------------------|------------------------|
-------------------------|------------------------|--3--5--3----2----------|
--5--5--5----5--0--3--5--|--L--5--5----5--5--5----|------------------3--5--|


 E E Q  E E Q    E E Q  E E E E   E E Q  E E Q
------------------------|-------------------------|------------------------|
------------------------|-------------------------|------------------------|
------------------------|-------------------------|------------------------|
--L--5--5----5--5--5----|--5--5--5----5--5--5--5--|--L--5--5----5--5--5----|


 E E Q  Q  E E   E E Q  E E Q    E E Q  E E E E
------------------------|------------------------|-------------------------|
------------------------|------------------------|-------------------------|
--3--5--3----2----------|------------------------|-------------------------|
------------------3--5--|--L--5--5----5--5--5----|--5--5--5----5--5--5--5--|


 E E Q  E E Q    E E E E E E E E   E E Q  E E E E
------------------------|--------------------------|-------------------------|
------------------------|--------------------------|-------------------------|
------------------------|--------------3--0--------|-------------------------|
--L--5--5----5--5--5----|--5--0--3--5--------3--5--|--L--5--5----5--5--5--5--|


 E E Q  E E E E   E E E E E E E E   E E  E  E  E  E
-------------------------|--------------------------|-------------------------|
-------------------------|--------------------------|--10-----10--------------|
-------------------------|--------3--L--3--2--------|-------------12--10------|
--L--5--5----5--5--0--5--|--L--0--------------3--0--|---------------------12--|


 E E E E E E   Q  Q   Q
--------------------|------------------||
--------------------|------------------||
-----------0--------|------------------||
--8-----8--5--3--5--|--L----5\---------||

Almost there ...

Sign in to get your own page with links to favourite songs and more. You are just one click away...

Login with Facebook Login with Google