Log in

One click and you are in

Login with Facebook Login with Google

Why sign up and log in

Guitar Tabs Explorer
Dio bass tabs for Sunset superman

Bass tabs

Tuning: Standard (E A D G)


Intro: (bass comes in at 0:39)

G|-----------------|-----------------|-----------------|-----------------|
D|-----------------|-----------------|-----------------|-----------------|
A|-----------------|-----------------|-----------------|---2-1---2-1-----|
E|-----------------|-----------------|-----------------|-------2-----4-2-|

G|-----------------|-----------------|-----------------|-----------------|
D|-----------------|-----------------|-----------------|-----------------|
A|-----------------|-----------------|-----------------|-------1-2-4-2---|
E|-4---------------|-(4)-------------|-(4)-------------|---2-4---------2-|

G|-----------------|-----------------|-----------------|-----------------|
D|-----------------|-----------------|-----------------|-----------------|
A|-----------------|-----------------|-----------------|---2-1---2-1-----|
E|-4-4-4-4-4-4-4-4-|-4-4-4-4-4-4-4-4-|-4-4-4-4-4-4-4-4-|-4-----2-----4-2-|

G|-----------------|-----------------|-----------------|-----------------|
D|-----------------|-----------------|-----------------|-----------------|
A|-----------------|-----------------|-----------------|---------4-2-1---|
E|-4-4-4-4-4-4-4-4-|-4-4-4-4-4-4-4-4-|-0---------------|-2-------------2-|

G|-----------------|-----------------|-----------------|-----------------|
D|-----------------|-----------------|-----------------|-----------------|
A|-----------------|-----------------|-----------------|---------4-6-4-6-|
E|-4-4-4-4-4-4-4-4-|-4-4-4-4-4-4-4-4-|-4-4-4-4-4-4-4-4-|-4-4-4-4---------|


Verse 1:

G|-----------------|-----------------|-----------------|-----------------|
D|-----------------|-----------------|-----------------|-----------------|
A|-----------------|-----------------|-----------------|-------1-1-2-2-4-|
E|-4-4-4-4-4-4-4-4-|-4-4-4-4-4-4-4-4-|-4-4-4-4-4-4-4-4-|-4-4-4-----------|

G|-----------------|-----------------|-----------------|-----------------|
D|-----------------|-----------------|-----------------|-----------------|
A|-----------------|-----------------|-----------------|-----------------|
E|-4-4-4-4-4-4-4-4-|-4-4-4-4-2-2-2-2-|-0-0-0-0-0-0-0-0-|-0-0-0-0-0-2-2-2-|

G|-----------------|-----------------|-----------------|-----------------|
D|-----------------|-----------------|-----------------|-----------------|
A|-----------------|-----------------|-----------------|-------1-1-2-2-4-|
E|-4-4-4-4-4-4-4-4-|-4-4-4-4-4-4-4-4-|-4-4-4-4-4-4-4-4-|-4-4-4-----------|

G|-----------------|-----------------|-----------------|-----------------|
D|-----------------|-----------------|-----------------|-----------------|
A|-----------------|-----------------|-----------------|-4-4-4-4-4-4-----|
E|-0-0-0-0-0-0-0-0-|-0-0-0-0-0-0-0-0-|-2-2-2-2-2-2-2-2-|-------------2-2-|

G|-----------------|-----------------|-----------------|-----------------|
D|-----------------|-----------------|-----------------|-----------------|
A|-----------------|-------------4-4-|-----------------|-----------------|
E|-4-4-4-4-4-4-4-4-|-4-4-4-4-4-4-----|-2-2-2-2-2-2-2-2-|-2-2-2-2-2-2-2-4-|

G|-----------------|-----------------|-----------------|-----------------|
D|-----------------|-----------------|-2-2-2-1-1-1-----|-----------------|
A|-----------------|-----------------|-------------4-4-|-4-2-2-----2-----|
E|-0-0-0-0-0-0-0-0-|-0-0-0-0-0-0-0-0-|-----------------|-------2-4---4-2-|

Chorus:

G|-----------------|-----------------|-----------------|-----------------|
D|-----------------|-----------------|-----------------|-----------------|
A|---------2-------|-----------------|---------2-------|---------4-------|
E|-2---4-----4-4---|---------4-------|-2---4-----4-4---|-----4-4---------|

G|-----------------|-----------------|-----------------|-----------------|
D|-----------------|-----------------|-----------------|-----------------|
A|---------2-------|-----------------|-2---------------|-----------------|
E|-2---4-----4-4---|---------2---4---|---4-4-----------|------------10\--|

Pre-verse:

G|-----------------|-----------------|-----------------|-----------------|
D|-----------------|-----------------|-----------------|-----------------|
A|-----------------|-----------------|-----------------|---2-1---2-1-----|
E|-4-4-4-4-4-4-4-4-|-4-4-4-4-4-4-4-4-|-4-4-4-4-4-4-4-4-|-4-----2-----4-2-|

G|-----------------|-----------------|-----------------|-----------------|
D|-----------------|-----------------|-----------------|-----------------|
A|-----------------|-----------------|-----------------|---------2-4-2-4-|
E|-4-4-4-4-4-4-4-4-|-4-4-4-4-4-4-4-4-|-0-----0-----0---|-----------------|


Verse 2:

G|-----------------|-----------------|-----------------|-----------------|
D|-----------------|-----------------|-----------------|-----------------|
A|-----------------|-----------------|-----------------|-------1-1-2-2-4-|
E|-4-4-4-4-4-4-4-4-|-4-4-4-4-4-4-4-4-|-4-4-4-4-4-4-4-4-|-4-4-4-----------|

G|-----------------|-----------------|-----------------|-----------------|
D|-----------------|-----------------|-----------------|-----------------|
A|-----------------|-----------------|-----------------|---------2-4-2---|
E|-4-4-4-4-4-4-4-4-|-4-4-4-4-2-2-2-2-|-0-0-0-0-0-0-0-0-|-0-0-0-0-------2-|

G|-----------------|-----------------|-----------------|-----------------|
D|-----------------|-----------------|-----------------|-----------------|
A|-----------------|-----------------|-----------------|-------1-1-2-2-4-|
E|-4-4-4-4-4-4-4-4-|-4-4-4-4-4-4-4-4-|-4-4-4-4-4-4-4-4-|-4-4-4-----------|

G|-----------------|-----------------|-----------------|-----------------|
D|-----------------|-----------------|-----------------|-----------------|
A|-----------------|-----------------|-----------------|-----4-4-4-4-----|
E|-0-0-0-0-0-0-0-0-|-0-0-0-0-0-0-0-0-|-2-2-2-2-2-2-2-2-|-2-2---------2-2-|

G|-----------------|-----------------|-----------------|-----------------|
D|-----------------|-----------------|-----------------|-----------------|
A|-----------------|-----2-2-----2-2-|-----------------|-----------------|
E|-4-4-4-4-4-4-4-4-|-4-4-----4-4-----|-2-2-2-2-2-2-2-2-|-2-2-2-2-2-4-2-2-|

G|-----------------|-----------------|-----------------|-----------------|
D|-----------------|-----------------|-2-2-2-1-1-1-----|-----------------|
A|-----------------|-----------------|-------------4-4-|-4-2-2-----2-----|
E|-0-0-0-0-0-0-0-0-|-0-0-0-0-0-0-0-0-|-----------------|-------2-4---4-2-|


Chorus:

G|-----------------|-----------------|-----------------|-----------------|
D|-----------------|-----------------|-----------------|-----------------|
A|---------2-------|-----------------|---------2-------|---------4-------|
E|-2---4-----4-4---|---------4-------|-2---4-----4-4---|-----4-4---------|

G|-----------------|-----------------|-----------------|-----------------|
D|-----------------|-----------------|-----------------|-----------------|
A|---------2-------|-----------------|---------2-------|---------4-------|
E|-2---4-----4-4---|---------4-------|-2---4-----4-4---|-----4-4---------|

G|-----------------|-----------------|-----------------|-----------------|
D|-----------------|-----------------|-----------------|-----------------|
A|---------2-------|-----------------|---------2-------|---------4-------|
E|-2---4-----4-4---|---------4-------|-2---4-----4-4---|-----4-4---------|

G|-----------------|-----------------|-----------------|-----------------|
D|-----------------|-----------------|-----------------|-----------------|
A|---------2-------|-----------------|-2---------------|-----------------|
E|-2---4-----4-4---|---------2---4---|---4-4-----------|-(4)-------------|


Solo:

G|-----------------|-----------------|-----------------|-----------------|
D|-----------------|-----------------|-----------------|-----------------|
A|-----------------|-----------------|-----------------|-----------------|
E|-(4)-------------|-(4)-------------|-(4)-------------|-(4)-------------|

G|-----------------|-----------------|-----------------|-----------------|
D|-----------------|-----------------|-----------------|-----------------|
A|-----------------|-----------------|-----------------|-----------------|
E|-4---------------|-(4)-------------|-(4)-------------|-(4)-------------|

G|-----------------|-----------------|-----------------|-----------------| x3
D|-----------------|-----------------|-----------------|-----------------|
A|-----------------|-----------------|-----------------|-----------------|
E|-(4)-------------|-(4)-------------|-(4)-------------|-(4)-------------|

G|-----------------|-----------------|-----------------|-----------------|
D|-----------------|-----------------|-----------------|-----------------|
A|-----------------|-----------------|---------2-------|-----------------|
E|-(4)-------------|-(4)-------------|-2---4-----4-4---|-(4)-------------|

G|-----------------|-----------------|-----------------|-----------------|
D|-----------------|-----------------|-----------------|-----------------|
A|-----------------|-----------------|-2---4---2-------|-----------------|
E|-(4)-------------|-(4)-------------|-----------2-4---|-(4)-------------|

G|-----------------|-----------------|-----------------|-----------------|
D|-----------------|-----------------|-----------------|-----------------|
A|-----------------|-----------------|---------2-------|-----------------|
E|-(4)-------------|-(4)-------------|-2---4-----4-4---|-(4)-------------|

G|-----------------|-----------------|-----------------|-----------------|
D|-----------------|-----------------|-----------------|-----------------|
A|-----------------|-----------------|-2---4---2-------|-----------------|
E|-(4)-------------|-(4)-------------|-----------2-4---|-(4)-------------|

G|-----------------|-----------------|-----------------|-----------------|
D|-----------------|-----------------|-----------------|-----------------|
A|-----------------|-----------------|---------2-------|-----------------|
E|-(4)-------------|-(4)-------------|-2---4-----4-4---|-(4)-------------|

G|-----------------|-----------------|-----------------|-----------------|
D|-----------------|-----------------|-----------------|-----------------|
A|-----------------|-----------------|-----------------|-----------------|
E|-(4)-------------|-(4)-------------|-4---------------|-(4)-------------|

G|-----------------|-----------------|
D|-----------------|-----------------|
A|-----------------|---2-1---2-2-1---|
E|-(4)-------------|-------2-------2-|


Verse 3:

G|-----------------|-----------------|-----------------|-----------------|
D|-----------------|-----------------|-----------------|-----------------|
A|-----------------|-----------------|-----------------|-------1-1-2-2-4-|
E|-4-4-4-4-4-4-4-4-|-4-4-4-4-4-4-4-4-|-4-4-4-4-4-4-4-4-|-4-4-4-----------|

G|-----------------|-----------------|-----------------|-----------------|
D|-----------------|-----------------|-----------------|-----------------|
A|-----------------|-----------------|-----------------|-----4-4-----4---|
E|-4-4-4-4-4-4-4-4-|-4-4-4-4-2-2-2-2-|-0-0-0-0-0-0-0-0-|-2-2-----2-2---4-|

G|-----------------|-----------------|-----------------|-----------------|
D|-----------------|-----------------|-----------------|-----------------|
A|-----------------|-----------------|-----------------|-----1-1-2-2-4-4-|
E|-----4-4-4-4-4-4-|-4-4-4-4-4-4-4-4-|-4-4-4-4-4-4-4-4-|-4-4-------------|

G|-----------------|-----------------|-----------------|-----------------|
D|-----------------|-----------------|-----------------|-----------------|
A|-----------------|-----------------|-----------------|---------4---4---|
E|-0-0-0-0-0-0-0-0-|-0-0-0-0-0-0-0-0-|-2-2-2-2-2-2-2-2-|-2-2-2-2---2---2-|

G|-----------------|-----------------|-----------------|-----------------|
D|-----------------|-----------------|-----------------|-----------------|
A|-----------------|---------2-4-2-4-|-----------------|-----------------|
E|-4-4-4-4-4-4-4-4-|-4-4-4-4---------|-2-2-2-2-2-2-2-2-|-2-2-2-2-2-2-2-2-|

G|-----------------|-----------------|-----------------|-----------------|
D|-----------------|-----------------|-2-2-2-1-1-1-2-2-|-2-1-1-1-2-1-----|
A|-----------------|-----------------|-----------------|-------------2---|
E|-0-0-0-0-0-0-0-0-|-0-0-0-0-0-0-0-0-|-----------------|---------------2-|


Chorus/Outro:

G|-----------------|-----------------|-----------------|-----------------|
D|-----------------|-----------------|-----------------|-----------------|
A|---------2-------|-----------------|---------2-------|---------4-------|
E|-2---4-----4-4---|---------4-------|-2---4-----4-4---|-----4-4---------|

G|-----------------|-----------------|-----------------|-----------------|
D|-----------------|-----------------|-----------------|-----------------|
A|---------2-------|-----------------|-2---------------|---------4-------|
E|-2---4-----4-4---|---------2---4---|---4-4-----------|-----4-4---------|

G|-----------------|-----------------|-----------------|-----------------|
D|-----------------|-----------------|-----------------|-----------------|
A|---------2-------|-----------------|---------2-------|---------4-------|
E|-2---4-----4-4---|---------4-------|-2---4-----4-4---|-----4-4---------|

G|-----------------|-----------------|-----------------|-----------------|
D|-----------------|-----------------|-----------------|-----------------|
A|---------2-------|-----------------|-2---------------|---------4-------|
E|-2---4-----4-4---|---------2---4---|---4-4-----------|-----4-4---------|

G|-----------------|-----------------|-----------------|-----------------| x2
D|------REST-------|------REST-------|------REST-------|------REST-------|
A|-----------------|-----------------|-----------------|-----------------|
E|-----------------|-----------------|-----------------|-----------------|

G|-----------------|-----------------|-----------------|-----------------|\
D|-----------------|-----------------|-----------------|-----------------| |
A|---------2-------|-----------------|---------2-------|---------4-------| |
E|-2---4-----4-4---|---------4-------|-2---4-----4-4---|-----4-4---------| \
                                      (Repeat to fade)
G|-----------------|-----------------|-----------------|-----------------| /
D|-----------------|-----------------|-----------------|-----------------| |
A|---------2-------|-----------------|-2---------------|---------4-------| |
E|-2---4-----4-4---|---------2---4---|---4-4-----------|-----4-4---------|/


************************************

| (n) Ghost note
| \  Slide down

************************************

Almost there ...

Sign in to get your own page with links to favourite songs and more. You are just one click away...

Login with Facebook Login with Google