Log in

One click and you are in

Login with Facebook Login with Google

Why sign up and log in

Guitar Tabs Explorer
Dio bass tabs for Strange highways

Bass tabs with lyrics

Tuning: Half-Step Down (Eb Ab Db Gb)


Bass

bass enters at 00:58 seconds

   W          W          W
Gb||-------------------|-------------------|-------------------|
Db||-------------------|-------------------|-------------------|
Ab||-------------------|-------------------|-------------------|
Eb||-------------------|-------------------|-------------------|
 W           W          W
-------------------||--------------------|-------------------|
-------------------||*-------------------|-------------------|
-------------------||*-------------------|-------------------|
-------------------||--------------------|-------------------|


 W          W          W          W
-------------------|-------------------|-------------------|-------------------|
-------------------|-------------------|-------------------|-------------------|
-------------------|-------------------|-------------------|-------------------|
-------------------|-------------------|-------------------|-------------------|


 W          W           W
-------------------|--------------------||-------------------|
-------------------|-------------------*||-------------------|
-------------------|-------------------*||-------------------|
-------------------|--------------------||-------------------|

 Q  Q  S S E E E   Q  Q  S S E E E
--------------------------|--------------------------|
--------------------------|--------------------------|
-----------------1-----1--|-----------------1-----1--|
--0----0----0h-2----2-----|--0----0----0h-2----2-----|


 Q  Q  S S E E E   Q  Q  S S E Q    Q  Q  S S E E E
--------------------------|-------------------------|--------------------------|
--------------------------|-------------------------|--------------------------|
-----------------1-----1--|-----------------1-------|-----------------1-----1--|
--0----0----0h-2----2-----|--0----0----0h-2----2----|--0----0----0h-2----2-----|


             Verse:

 Q  Q  S S E E E   Q  Q  S S E E E
--------------------------|--------------------------|
--------------------------|--------------------------|
-----------------1-----1--|-----------------1-----1--|
--0----0----0h-2----2-----|--0----0----0h-2----2-----|


 Q  Q  S S E E E   Q  Q  S S E E E
--------------------------|--------------------------|
--------------------------|--------------------------|
-----------------1-----1--|-----------------1-----1--|
--0----0----0h-2----2-----|--0----0----0h-2----2-----|


 Q  Q  S S E E E   Q  Q  S S E E E
--------------------------|--------------------------|
--------------------------|--------------------------|
-----------------1--0--3--|-----------------1-----1--|
--0----0----0h-2----------|--0----0----0h-2----2-----|


 Q  Q  S S E E E   Q  Q  S S E E E
--------------------------|--------------------------|
--------------------------|--------------------------|
-----------------1-----1--|-----------------1-----1--|
--0----0----0h-2----2-----|--0----0----0h-2----2-----|


                Chorus:

 S S S S S S S S S S S S Q    Q  E. S S S E E E
--------------------------------|----------------------------|
--------------------------------|----------------------------|
--3-3-3-3-3-3-3-3-3-3-3-3-------|-------------------1-----1--|
--------------------------2b----|--0----0---0h-0h-2----2-----|


 Q  E. S S S E Q    Q  Q  S S E E E
--------------------------|--------------------------|
--------------------------|--------------------------|
------------------1-------|-----------------1-----1--|
--0----0---0-0h-2----2----|--0----0----0h-2----2-----|


 Q  E. S S S E Q    Q  E. S S S E E E
--------------------------|----------------------------|
--------------------------|----------------------------|
------------------1-------|-------------------1-----1--|
--0----0---0-0h-2----2----|--0----0---0h-0h-2----2-----|


 Q  E. S S S E E E   Q  E. S S S E E E
----------------------------|----------------------------|
----------------------------|----------------------------|
-------------------1-----1--|-------------------1-----1--|
--0----0---0h-0h-2----2-----|--0----0---0h-0h-2----2-----|


 Q  Q  S S E Q    Q  Q  S S E E E   Q  Q  S S E E E
-------------------------|--------------------------|--------------------------|
-------------------------|--------------------------|--------------------------|
-----------------1-------|-----------------1-----1--|-----------------1-----1--|
--0----0----0h-2----2----|--0----0----0h-2----2-----|--0----0----0h-2----2-----|


 Q  Q  S S E E E   Q  E. S S S E E  E
--------------------------|-----------------------------|
--------------------------|-----------------------------|
-----------------1-----1--|-------------------1--3s--7--|
--0----0----0h-2----2-----|--0----0---0h-0h-2-----------|


 Q  Q  S S E E E   Q  Q  S S E E E
--------------------------|--------------------------|
--------------------------|--------------------------|
-----------------1-----1--|-----------------1-----1--|
--0----0----0h-2----2-----|--0----0----0h-2----2-----|


 Q  Q  S S E E E   S S S S S S S S S S S S Q
--------------------------|--------------------------------|
--------------------------|--------------------------------|
-----------------1-----1--|--3-3-3-3-3-3-3-3-3-3-3-3-------|
--0----0----0h-2----2-----|--------------------------2b----|


Chorus:

 Q  E. S S S E E E   Q  E. S S S E E E
---------------------------|----------------------------|
---------------------------|----------------------------|
------------------1-----1--|------------------1---------|
--0----0---0-0h-2----2-----|--0----0---0-0h-2----2--L~--|


 Q  Q  S S E E E   Q  E. S S S E Q
--------------------------|--------------------------|
--------------------------|--------------------------|
-----------------1-----1--|------------------1-------|
--0----0----0h-2----2-----|--0----0---0-0h-2----2----|


 Q  E. S S S E E E   Q  E. S S S E E E
---------------------------|----------------------------|
---------------------------|----------------------------|
------------------1-----1--|------------------1---------|
--0----0---0-0h-2----2-----|--0----0---0-0h-2----2--L~--|


Bridge:

 S S E Q  Q  Q    S S E Q  Q  Q    S S E Q  Q  Q
------------------------|------------------------|------------------------|
------------------------|------------------------|------------------------|
--5-4-L--4----4----4----|--4-4-L--4----4----4----|--4-4-L--4----4----4----|
------------------------|------------------------|------------------------|


 S S E Q  Q  S E.   S S E Q  Q  Q    S S E Q  E E.  E.
--------------------------|------------------------|--------------------------|
--------------------------|------------------------|--------------------------|
--4-4-L--4----4----L------|--4-4-L--4----4----4----|--4-4-L--4----4-----------|
---------------------3~---|------------------------|-----------------3~---3---|


 S S E Q  Q  Q    S S E Q  Q  S E.   S S E Q  Q  Q
------------------------|--------------------------|------------------------|
------------------------|--------------------------|------------------------|
--4-4-L--4----4----4----|--4-4-L--4----4----4------|--4-4-L--4----4----4----|
------------------------|---------------------3~---|------------------------|


             Solo:

 S S E Q  E E. E.   Q  E. S S S E E E
-------------------------|---------------------------|
-------------------------|---------------------------|
--4-4-L--4----4----------|------------------1-----1--|
-----------------3---2---|--0----0---0-0h-2----2-----|


 Q  E. S S S E E E   Q  E. S S S E E E
---------------------------|---------------------------|
---------------------------|---------------------------|
------------------1-----1--|------------------1-----1--|
--0----0---0-0h-2----2-----|--0----0---0-0h-2----2-----|


 Q  E. S S S E Q    Q  E. S S S E E E
---------------------------|---------------------------|
---------------------------|---------------------------|
------------------1--------|------------------1-----1--|
--0----0---0-0h-2----2~----|--0----0---0-0h-2----2-----|


 Q  E. S S S E Q    Q  E. S S S E E E
---------------------------|---------------------------|
---------------------------|---------------------------|
------------------1--------|------------------1-----1--|
--0----0---0-0h-2----2~----|--0----0---0-0h-2----2-----|


              Verse:

 Q  E. S S S E Q    Q  Q  S S E E E
---------------------------|--------------------------|
---------------------------|--------------------------|
------------------1--------|-----------------1-----1--|
--0----0---0-0h-2----2~----|--0----0----0h-2----2-----|


 Q  Q  S S E E E   Q  Q  S S E E E
--------------------------|--------------------------|
--------------------------|--------------------------|
-----------------1-----1--|-----------------1-----1--|
--0----0----0h-2----2-----|--0----0----0h-2----2-----|


 Q  Q  S S E E E   Q  Q  S S E E E
--------------------------|--------------------------|
--------------------------|--------------------------|
-----------------1-----1--|-----------------1-----1--|
--0----0----0h-2----2-----|--0----0----0h-2----2-----|


 Q  Q  S S E E E   Q  Q  S S E E E
--------------------------|--------------------------|
--------------------------|--------------------------|
-----------------1-----1--|-----------------1-----1--|
--0----0----0h-2----2-----|--0----0----0h-2----2-----|

                Chorus:

 S S S S S S S S S S S S Q    Q  E. S S S E E E
--------------------------------|---------------------------|
--------------------------------|---------------------------|
--3-3-3-3-3-3-3-3-3-3-3-3-------|------------------1-----1--|
--------------------------2b----|--0----0---0-0h-2----2-----|


 Q  E. S S S E E E   Q  Q  S S E E E
----------------------------|--------------------------|
----------------------------|--------------------------|
------------------1---------|-----------------1-----1--|
--0----0---0-0h-2----2--L~--|--0----0----0h-2----2-----|


 Q  E. S S S E Q    Q  E. S S S E E E
--------------------------|---------------------------|
--------------------------|---------------------------|
------------------1-------|------------------1-----1--|
--0----0---0-0h-2----2----|--0----0---0-0h-2----2-----|


 Q  E. S S S E E E   Q  Q  S S E E E
----------------------------|--------------------------|
----------------------------|--------------------------|
------------------1---------|-----------------1-----1--|
--0----0---0-0h-2----2--L~--|--0----0----0h-2----2-----|


 Q  E. S S S E Q    Q  E. S S S E E E
--------------------------|---------------------------|
--------------------------|---------------------------|
------------------1-------|------------------1-----1--|
--0----0---0-0h-2----2----|--0----0---0-0h-2----2-----|


 Q  E. S S S E E E   Q  Q  S S E E E
----------------------------|--------------------------|
----------------------------|--------------------------|
------------------1---------|-----------------1-----1--|
--0----0---0-0h-2----2--L~--|--0----0----0h-2----2-----|


 Q  E. S S S E Q
--------------------------||
--------------------------||
------------------1-------||
--0----0---0-0h-2----2----||



Duration 🏷Legend
---------------
W - whole
H - half
Q - quarter
E - 8th
S - 16th
T - 32nd
X - 64th
. - note dotted
|-n-| - n-tuplets


Tablature 🏷Legend
----------------
L - tied note
x - dead note
g - grace note
(n) - ghost note
> - accentuded note
NH - natural harmonic
AH - artificial harmonic
TH - tapped harmonic
SH - semi harmonic
PH - pitch harmonic
h - hammer on
p - pull off
b - bend
br - bendRelease
pb - preBend
pbr - preBendRelease
brb - bendReleaseBend
\
/ - tremolo bar dip
\
 - tremolo bar dive
-/n - tremolo bar Release up
/n\ - tremolo bar inverted dip
/n - tremolo bar return
-\
 - tremolo bar Release down
S - shift slide
s - legato slide
/ - slide into from below or out of upwards
\ - slide into from above or out of downwards
~ - vibrato
W - wide vibrato
tr - trill
TP - tremolo picking
T - tapping
S - slap
P - pop
< - fade in
^ - brush up
v - brush down

Almost there ...

Sign in to get your own page with links to favourite songs and more. You are just one click away...

Login with Facebook Login with Google