Log in

One click and you are in

Login with Facebook Login with Google

Why sign up and log in

Guitar Tabs Explorer
Dio bass tabs for Stand up and shout

Bass tabs

Dio
Stand Up And Shout

Drew
dwr7713@aol.com

 Intro

 (0:05)
1---------------------------------------------------------------|
2---------------------------------------------------------------|
3-------------------------------------------------------2-0-2-4-|
4-5-5-5-5-------3-3-55555555555555555555555555555555555---------|

1----------------------------------------|
2----------------------------------------|
3----------------------------------------|
4-555555555555555333555555555555-5-4-3-2-|

 Verse

1----------------------------------------|
2----------------------------------------|
3--------------------------------2-0-2-4-|  X4
4-555555555555555333555555555555---------|

 Chorus

1-----------------------------------------------------------|
2-----------------------------------------------------------|
3-4-4-4444--------------------------------------------------|
4----------3-33333-5-55555-3-33333-7-77777-3-33333-11111111-|

1----------------------------------------|
2----------------------------------------|
3--------------------------------2-0-2-4-|  X2
4-555555555555555333555555555555---------|

 Verse

1----------------------------------------|
2----------------------------------------|
3--------------------------------2-0-2-4-|  X4
4-555555555555555333555555555555---------|

 Chorus

1------------------------------------------------------------|
2------------------------------------------------------------|
3-4-4-4444---------------------------------------------------|
4----------3-33333-5-55555-3-333333-7-77777-3-33333-11111111-|

1----------------------------------------|
2----------------------------------------|
3--------------------------------2-0-2-4-|  X2
4-555555555555555333555555555555---------|

 During Solo

1--------------------------------------------------------|
2--------------------------------------------------------|
3--------------------------------------------------------|
4-55555555-7-55555555-3-55555555-7-55555555-3-55555555-7-|

1----------------------------------------------------------|
2----------------------------------------------------------|
3----------------------------------------------------------|
4-55555555-3-55555555-7-55555555-3-333333-3--3-3--3-333333-|

1------------------------|
2------------------------|
3------------------------|
4-3--3-3--3-333333333333-|

 Verse

1----------------------------------------|
2----------------------------------------|
3--------------------------------2-0-2-4-| X2
4-555555555555555333555555555555---------|

 Chorus

1----------------------------------------------------------|
2----------------------------------------------------------|
3-4-4-4444-------------------------------------------------|
4----------3-33333-5-55555-3-33333-7-77777-3-33333-8-88888-|

1------------------------------------------------------------------|
2------------------------------------------------------------------|
3------------------------------------------------------------------|
4-3-33333-5-55555-3-33333-7-77777-3-33333-8-88888-3-33333-11111111-|

 During 2nd Solo

1--------------------------------------|
2--------------------------------------|     last note let ring
3------------------------------2-0-2-4-| X7   on the 7th time
4-5555555555555553335555555555---------|

1----------------------------------------------|
2----------------------------------------------|
3--------2-------------------------------------|

Almost there ...

Sign in to get your own page with links to favourite songs and more. You are just one click away...

Login with Facebook Login with Google