Log in

One click and you are in

Login with Facebook Login with Google

Why sign up and log in

Guitar Tabs Explorer
Dio tabs for Rainbow in the dark

Guitar tabs

--------------------------------------------------------------------

    Rainbow in the Dark main Riff by Ronnie James Dio/ Vivain Cambell
                     Tab by Daniel M. Amitin

e:-----------------------5---------------------------------------------------|
B:-----------------------5---------------------------------------------------|
G:-2-------------------------------------------2-----------------------------|
D:-2--------3-----3\--5---------------h---p----2--------3-----3\--5----------|
A:-0--------3-----3\--5--------3--2--0--2--0---0--------3-----3\--5----------|
E:----3--0--1--0--1\--3-----0---------------------3--0--1--0--1\--3----------|
  This is all I could think of off the the top of my head.(don’t feel bad I

                A.H.........
e:---------------------------------------------------------------------------|
B:---------------------------------------------------------------------------|
G:---------------------------------------------------------------------------|
D:---------------------------------------------------------------------------|
A:------------------3--2-----------------------------------------------------|
E:---------------0--------3~-------------------------------------------------|
  never tab leads, they’re anothers persons jam, learn to make your own) Enjo



e:---------------------------------------------------------------------------|
B:---------------------------------------------------------------------------|
G:---------------------------------------------------------------------------|
D:---------------------------------------------------------------------------|
A:---------------------------------------------------------------------------|
E:---------------------------------------------------------------------------|
  y!



e:---------------------------------------------------------------------------|
B:---------------------------------------------------------------------------|
G:---------------------------------------------------------------------------|
D:---------------------------------------------------------------------------|
A:---------------------------------------------------------------------------|
E:---------------------------------------------------------------------------|




e:------------------------------|
B:------------------------------|
G:------------------------------|
D:------------------------------|
A:------------------------------|
E:------------------------------|




Other versions of Rainbow In The Dark

Rainbow in The DarkChords
Rainbow in The Dark AcousticChords
Rainbow in The Dark UkuleleChords

Almost there ...

Sign in to get your own page with links to favourite songs and more. You are just one click away...

Login with Facebook Login with Google