Log in

One click and you are in

Login with Facebook Login with Google

Why sign up and log in

Guitar Tabs Explorer
Dio bass tabs for Push

Bass tabs

Album:Killing the Dragon
Bassist:Jimmy Bain
Tabber:Dev Fuld

This is an awesome song that I couldn't find anywhere on the net so I decided to tab it.

Key:
x = times a number
* = let it ring
b = bend
Intro (fading in and out)
G:----|
D:----|
A:5x15|
E:----|

Next intro riff (sounds like chorus but it's NOT)
G:--------------------------|----------------------------------|
D:--------------------------|----------------------------------|
A:5-5-3-8-7-3-4-5*-8-7-3-4-5|5-5-3-8-7-3-4-5-8-3-3-3-3--3-3-3-3|
E:--------------------------|----------------------------------|

G:---------------------------------|---------------|
D:---------------------------------|---------------|
A:5-5-3-8-7-3-4-7b-8-5--5-7-8-7-5-3|5-5-3-8-7-3-4-5|
E:---------------------------------|---------------|


Verse
G:---------------------------------------|
D:---------------------------------------|
A:5x16------------------5x16-------------|
E:-----1x8-0x8-3x8-5x16------1x8-0x8-3x16|

Pre-Chorus
G:--------------|
D:--------------|
A:7x16------9x32|
E:-----8x16-----|


Chorus
G:--------------------------|------------------------------------|
D:--------------------------|------------------------------------|
A:--------------------------|------------------------------------|
E:7-7-5-10-9-5-6-7*-10-9-5-6|7-7-5-10-9-5-6-7-10-5-5-5-5--5-5-5-5|

G:------------------------------------|
D:------------------------------------|
A:------------------------------------|
E:7-7-5-10-9-5-6-9b-10-7--7-9-10-9-7-5|


Solo...is the pre-chorus

That's it. Honestly this song kicks some major ass. You can figure out the order your-self,
it's fairly easy. Any questions or comments, e-mail me at rocklvson@yahoo.com

Almost there ...

Sign in to get your own page with links to favourite songs and more. You are just one click away...

Login with Facebook Login with Google