Log in

One click and you are in

Login with Facebook Login with Google

Why sign up and log in

Guitar Tabs Explorer
Dio tabs for Metal will never die

Guitar tabs

Half step tuning.
A chord diagramD#D# A chord diagramA#A# A chord diagramF#F# A chord diagramC#C# A chord diagramG#G# A chord diagramD#D#

Key; A chord diagramA augmentedA - Harmonic Pinch
     H - Hammer-on
     ~ - Vibrato
     / - Slide Up
     \ - Slide Down
Intro    #1
|-----------------------|-----------------------------|---------------------|
|-----------------------|-----------------------------|---------------------|
|-----------------------|-----------------------------|---------------------|
|---------2-------------|-------5-------2-------------|-----------2---------|
|---------2---/7~-------|-5--7-----7A---2---/7~--7--5-|-----------2---/7----|
|---12\---0--------5--7-|---------------0-------------|-7--6--5---0---------|

-------|---------------------------------|
-------|-------------------8\------------|    Play 2xs
-------|-------------------7\------------|
-------|-------5-------2---7\------------|
-------|-5--7-----7A---2-----------------|
--5--7-|---------------0--------5--4--3~-|
  #2                     #3
|----------|          |-------|
|----------|          |-------|
|-------7--| Play 2xs |-------| Let the chord
|---2---5--|          |---2---|  sustain out
|---2------|          |---2---|
|---0------|          |---0---|
     #4                              #5
|--------------|              |----------------------|-------------------|
|--------------|              |----------------------|-------------------|
|--------------| Play 4 times |----------------------|-------------------|
|--5--7--7--7--|              |-----7--5--12--5--7---|--7--5-------------|
|--5--7--7--7--|              |-----5--3--10--3--5---|--5--3--5--7--4----|
|--3--5--5--5--|              |--0-------------------|--------3--5--2--0-|

|------------------|--------------------|
|------------------|--------------------|
|------------------|--------------------| Play 2xs
|--7--5--12--5--7--|--7--5--------------|  Then Play from Intro
|--5--3--10--3--5--|--5--3--7--5--4-----|
|------------------|--------5--3--2--0--|

|--------------------------|
|--------------------------|
|--9--7--5--4--2-----------| The sustaining solo
|-----------------5--4--2--|  after playing the
|--------------------------| second verse. which is #3
|--------------------------|

All I have for now. Basicaly repeat most of the tabs. Still working on the Solo. Enjoy.

Almost there ...

Sign in to get your own page with links to favourite songs and more. You are just one click away...

Login with Facebook Login with Google