Log in

One click and you are in

Login with Facebook Login with Google

Why sign up and log in

Guitar Tabs Explorer
Dio tabs for Man on the silver mountain

Guitar tabs

Song Man on the silver mountain
Artist DIO


Intro
E-----------------------------------------------------------------------|
B-----------------------------------------------------------------------|
G--------------3----------------------5--3------------------------------|
D-----5-3-5----3---3--5----5-3-5---5--3---------------------------------|
A-----5-3-5--------3--5----5-3-5----------------------------------------|
E--3--------------------------------------------------------------------|

E-------------------------------------------------------------------|
B-------------------------------------------------------------------|
G-------------3-----------------------------------------------------|
D-----5-3-5---3---3--5----5-3-1-------------------------------------|
A-----5-3-5-------3--5----5-3-1-------------------------------------|
E--3----------------------------------------------------------------|

I'm a wheel, I'm a wheel...
E------------------------------------------------------------------|
B------------------------------------------------------------------|
G----------------5--------------------------0--4---------5---------|
D-------3-----------------5--------5-----2------------5------------|
A-----------3-3------------------------------------3---------------|
E--1-1---------------3-3------3-3----------------------------------|

E------------------------------------------------------------------------|
B---------------------------------------------------------------0-4------|
G--------------------------------------------5--------5-----2---------5--|
D------3--------3--------5--------1--------------------------------5-----|
A----------------------------------------3-3------3-3------------3-------|
E-1-1------1-1------3-3------1-1-----------------------------------------|

     Tapping
E-------------------------------------------------------------------|
B—t10-p-6-p-3---t10-p-6--p-3---t10-p-6--p-3---t10-p-6--p-3----------|
G-------------------------------------------------------------------|
D-------------------------------------------------------------------|
A-------------------------------------------------------------------|
E-------------------------------------------------------------------|

E-------------------------------------------------------------------------|
B--t11-p-6-p-3---t11-p-6--p-3---t11-p-6--p-3---t11-p-6--p-3---------------|
G-------------------------------------------------------------------------|
D-------------------------------------------------------------------------|
A-------------------------------------------------------------------------|
E-------------------------------------------------------------------------|

E-------------------------------------------------------------------------|
B—t10-p-6-p-3---t10-p-6--p-3---t10-p-6--p-3---t10-p-6--p-3----------------|
G-------------------------------------------------------------------------|
D-------------------------------------------------------------------------|
A-------------------------------------------------------------------------|
E-------------------------------------------------------------------------|

E---------------------------------------------------------------------------|
B--t13-p-10-p-6---t13-p-10-p-6---t13-p-10-p-6---t13-p-10-p-6----------------|
G---------------------------------------------------------------------------|
D---------------------------------------------------------------------------|
A---------------------------------------------------------------------------|
E---------------------------------------------------------------------------|

Almost there ...

Sign in to get your own page with links to favourite songs and more. You are just one click away...

Login with Facebook Login with Google