Log in

One click and you are in

Login with Facebook Login with Google

Why sign up and log in

Guitar Tabs Explorer
Dio tabs for Just another day

Guitar tabs with lyrics

Tuning: Standard (E A D G B E)


Guitar
     PM PM PM PM PM PM PM PM    PM PM PM PM PM PM PM PM
     A chord diagramE MajorE  A chord diagramE MajorE  A chord diagramE MajorE  A chord diagramE MajorE  A chord diagramE MajorE  A chord diagramE MajorE  A chord diagramE MajorE  A chord diagramE MajorE     A chord diagramE MajorE  A chord diagramE MajorE  A chord diagramE MajorE  A chord diagramE MajorE  A chord diagramE MajorE  A chord diagramE MajorE  A chord diagramE MajorE  A chord diagramE MajorE
A chord diagramE MajorE||--------------------------|--------------------------|
A chord diagramBB||--------------------------|--------------------------|
A chord diagramG+G||--------------------------|--------------------------|
A chord diagramD MajorD||--------------------------|--------------------------|
A chord diagramA augmentedA||--------------------------|--------------------------|
A chord diagramE MajorE||--0--0--0--0--0--0--0--0--|--0--0--0--0--0--0--0--0--|
  PM PM PM PM PM PM PM PM    PM PM PM PM   SH   SH PM
  A chord diagramE MajorE  A chord diagramE MajorE  A chord diagramE MajorE  A chord diagramE MajorE  A chord diagramE MajorE  A chord diagramE MajorE  A chord diagramE MajorE  A chord diagramE MajorE     A chord diagramE MajorE  A chord diagramE MajorE  A chord diagramE MajorE  A chord diagramE MajorE    A chord diagramE MajorE    A chord diagramE MajorE  A chord diagramE MajorE  A chord diagramE MajorE
--------------------------|------------------------------|
--------------------------|------------------------------|
--------------------------|------------------------------|
--------------------------|--------------2--0--------|
--------------------------|------------------------2--2--|
--0--0--0--0--0--0--0--0--|--0--0--0--0---------------0--|


     PM    PM PM    PM PM       PM PM
  A chord diagramE MajorE  A chord diagramE MajorE  A chord diagramE MajorE  A chord diagramE MajorE  A chord diagramE MajorE  A chord diagramE MajorE  A chord diagramE MajorE  A chord diagramE MajorE     A chord diagramE MajorE  A chord diagramE MajorE  A chord diagramE MajorE  A chord diagramE MajorE  A chord diagramE MajorE  A chord diagramE MajorE  A chord diagramE MajorE  A chord diagramE MajorE
--------------------------|--------------------------|
--------------------------|--------------------------|
--------------------------|--------------------------|
--------5--------5--------|--5--------5--L--0--1--2--|
--------5--------5--------|--5--------5--L--0--1--2--|
--L--0-----0--0-----0--0--|-----0--0-----------------|


  PM PM    PM PM    PM PM    PM PM PM PM   SH    PM
  A chord diagramE MajorE  A chord diagramE MajorE  A chord diagramE MajorE  A chord diagramE MajorE  A chord diagramE MajorE  A chord diagramE MajorE  A chord diagramE MajorE  A chord diagramE MajorE     A chord diagramE MajorE  A chord diagramE MajorE  A chord diagramE MajorE  A chord diagramE MajorE    A chord diagramE MajorE  A chord diagramE MajorE  A chord diagramE MajorE  A chord diagramE MajorE
--------------------------|----------------------------|
--------------------------|----------------------------|
--------------------------|----------------------------|
--L-----5--------5--------|--------------2--0--------|
--L-----5--------5--------|----------------------2--2--|
--0--0-----0--0-----0--0--|--3--0--2--0-------------0--|

     PM    PM PM    PM PM       PM PM
  A chord diagramE MajorE  A chord diagramE MajorE  A chord diagramE MajorE  A chord diagramE MajorE  A chord diagramE MajorE  A chord diagramE MajorE  A chord diagramE MajorE  A chord diagramE MajorE     A chord diagramE MajorE  A chord diagramE MajorE  A chord diagramE MajorE  A chord diagramE MajorE  A chord diagramE MajorE  A chord diagramE MajorE  A chord diagramE MajorE  A chord diagramE MajorE
--------------------------|--------------------------|
--------------------------|--------------------------|
--------------------------|--------------------------|
--------5--------5--------|--5--------5--L--0--1--2--|
--------5--------5--------|--5--------5--L--0--1--2--|
--L--0-----0--0-----0--0--|-----0--0-----------------|


  PM PM    PM PM    PM PM    PM PM PM PM       PM
  A chord diagramE MajorE  A chord diagramE MajorE  A chord diagramE MajorE  A chord diagramE MajorE  A chord diagramE MajorE  A chord diagramE MajorE  A chord diagramE MajorE  A chord diagramE MajorE     A chord diagramE MajorE  A chord diagramE MajorE  A chord diagramE MajorE  A chord diagramE MajorE  A chord diagramE MajorE  A chord diagramE MajorE  A chord diagramE MajorE  A chord diagramE MajorE
--------------------------|--------------------------|
--------------------------|--------------------------|
--------------------------|-----------------------0--|
--L-----5--------5--------|--------------2--0-----0--|
--L-----5--------5--------|--------------------2-----|
--0--0-----0--0-----0--0--|--3--0--2--0--------------|


     PM PM    PM PM PM PM    PM PM PM PM       PM PM PM PM
  A chord diagramE MajorE  S  S  A chord diagramE MajorE  S  S  S  S  A chord diagramE MajorE  S  S  S  S     A chord diagramE MajorE  S  S  S  S  E.  S S  E.  A chord diagramE MajorE
-----------------------------------------|---------------------------------|
-----------------------------------------|---------------------------------|
--L--------5--------------4--------------|--2--------------4---5-5h-7---0--|
--L--5--5--5--5--5--5--5--5--5--4--4--4--|--4--4--4--5--5--5---5-5--5---0--|
-----------------------------------------|---------------------------------|
-----------------------------------------|---------------------------------|


          PM PM PM PM    PM   PM         \1/
  Q    A chord diagramE MajorE  S  S  S  S  A chord diagramE MajorE  S  S A chord diagramE MajorE     Q    Q.     A chord diagramE MajorE  A chord diagramE MajorE  A chord diagramE MajorE
---------------------------------|-----------------------|
---------------------------------|-----------------------|
--L----5--------------4-------7--|--L----L------7--8--9--|
--L----5--5--5--5--5--5--5--x-5--|--L----L------7--8--9--|
---------------------------------|--------------5--6--7--|
---------------------------------|-----------------------|


        PM PM PM PM PM PM    PM PM PM PM PM PM PM PM
  Q     A chord diagramE MajorE  A chord diagramE MajorE  A chord diagramE MajorE  A chord diagramE MajorE  A chord diagramE MajorE  A chord diagramE MajorE     A chord diagramE MajorE  A chord diagramE MajorE  A chord diagramE MajorE  A chord diagramE MajorE  A chord diagramE MajorE  A chord diagramE MajorE  A chord diagramE MajorE  A chord diagramE MajorE
--------------------------|--------------------------|
--------------------------|--------------------------|
--L\----------------------|--------------------------|
--L\----------------------|--------------------------|
--L\----------------------|--------------------------|
--------0--0--0--0--0--0--|--0--0--0--0--0--0--0--0--|


  PM PM PM PM PM PM PM PM    PM PM PM PM PM
  A chord diagramE MajorE  A chord diagramE MajorE  A chord diagramE MajorE  A chord diagramE MajorE  A chord diagramE MajorE  A chord diagramE MajorE  A chord diagramE MajorE  A chord diagramE MajorE     A chord diagramE MajorE  A chord diagramE MajorE  A chord diagramE MajorE  A chord diagramE MajorE  A chord diagramE MajorE  A chord diagramE MajorE  A chord diagramE MajorE  A chord diagramE MajorE
--------------------------|--------------------------|
--------------------------|--------------------------|
--------------------------|-----------------7--8--9--|
--------------------------|-----------------7--8--9--|
--------------------------|-----------------5--6--7--|
--0--0--0--0--0--0--0--0--|--0--0--0--0--0-----------|


        PM PM PM PM PM PM    PM PM PM PM PM PM PM PM
  Q     A chord diagramE MajorE  A chord diagramE MajorE  A chord diagramE MajorE  A chord diagramE MajorE  A chord diagramE MajorE  A chord diagramE MajorE     A chord diagramE MajorE  A chord diagramE MajorE  A chord diagramE MajorE  A chord diagramE MajorE  A chord diagramE MajorE  A chord diagramE MajorE  A chord diagramE MajorE  A chord diagramE MajorE     Q    Q    Q    A chord diagramE MajorE  A chord diagramE MajorE
--------------------------|--------------------------|-----------------------|
--------------------------|--------------------------|-----------------------|
--L\----------------------|--------------------------|--7----7----7----7--9--|
--L\----------------------|--------------------------|--5----5----4----4--9--|
--L\----------------------|--------------------------|--------------------7--|
--------0--0--0--0--0--0--|--0--0--0--0--0--0--0--0--|--------------------0--|


                                PM PM PM PM PM PM    PM PM PM PM PM PM PM PM
  H        A chord diagramE MajorE  A chord diagramE MajorE  A chord diagramE MajorE  A chord diagramE MajorE     Q     A chord diagramE MajorE  A chord diagramE MajorE  A chord diagramE MajorE  A chord diagramE MajorE  A chord diagramE MajorE  A chord diagramE MajorE     A chord diagramE MajorE  A chord diagramE MajorE  A chord diagramE MajorE  A chord diagramE MajorE  A chord diagramE MajorE  A chord diagramE MajorE  A chord diagramE MajorE  A chord diagramE MajorE
-----------------------|--------------------------|--------------------------|
-----------------------|--------------------------|--------------------------|
--L--------9--7--8--9--|--L\----------------------|--------------------------|
--L--------9--7--8--9--|--L\----------------------|--------------------------|
--L--------7--5--6--7--|--L\----------------------|--------------------------|
--L--------------------|--------0--0--0--0--0--0--|--0--0--0--0--0--0--0--0--|


  PM PM PM PM PM PM PM PM    PM PM PM PM PM
  A chord diagramE MajorE  A chord diagramE MajorE  A chord diagramE MajorE  A chord diagramE MajorE  A chord diagramE MajorE  A chord diagramE MajorE  A chord diagramE MajorE  A chord diagramE MajorE     A chord diagramE MajorE  A chord diagramE MajorE  A chord diagramE MajorE  A chord diagramE MajorE  A chord diagramE MajorE  A chord diagramE MajorE  A chord diagramE MajorE  A chord diagramE MajorE
--------------------------|--------------------------|
--------------------------|--------------------------|
--------------------------|-----------------7--8--9--|
--------------------------|-----------------7--8--9--|
--------------------------|-----------------5--6--7--|
--0--0--0--0--0--0--0--0--|--0--0--0--0--0-----------|


        PM PM PM PM PM PM    PM PM PM PM PM PM PM PM
  Q     A chord diagramE MajorE  A chord diagramE MajorE  A chord diagramE MajorE  A chord diagramE MajorE  A chord diagramE MajorE  A chord diagramE MajorE     A chord diagramE MajorE  A chord diagramE MajorE  A chord diagramE MajorE  A chord diagramE MajorE  A chord diagramE MajorE  A chord diagramE MajorE  A chord diagramE MajorE  A chord diagramE MajorE     Q    Q    Q    A chord diagramE MajorE  A chord diagramE MajorE
--------------------------|--------------------------|-----------------------|
--------------------------|--------------------------|-----------------------|
--L\----------------------|--------------------------|--7----7----7----7--9--|
--L\----------------------|--------------------------|--5----5----4----4--9--|
--L\----------------------|--------------------------|--------------------7--|
--------0--0--0--0--0--0--|--0--0--0--0--0--0--0--0--|-----------------------|


  Q    H         A chord diagramE MajorE  A chord diagramE MajorE     A chord diagramE MajorE  A chord diagramE MajorE  A chord diagramE MajorE  A chord diagramE MajorE  A chord diagramE MajorE  A chord diagramE MajorE  A chord diagramE MajorE  A chord diagramE MajorE     A chord diagramE MajorE  A chord diagramE MajorE  A chord diagramE MajorE  A chord diagramE MajorE  A chord diagramE MajorE  A chord diagramE MajorE  A chord diagramE MajorE  A chord diagramE MajorE
-----------------------|--------------------------|--------------------------|
-----------------------|--------------------------|--------------------------|
--L----L\--------------|--------------------------|--------------------------|
--L----L\--------------|--------------------------|--------------------------|
--L----L\-----------5--|--------------------------|--------------------------|
-----------------------|--------------------------|--------------------------|



Duration 🏷Legend
---------------
W - whole
H - half
Q - quarter
A chord diagramE MajorE - 8th
S - 16th
T - 32nd
X - 64th
. - note dotted
|-n-|  - n-tuplets


Tablature 🏷Legend
----------------
L - tied note
x - dead note
g - grace note
(n) - ghost note
> - accentuded note
NH - natural harmonic
AH - artificial harmonic
TH - tapped harmonic
SH - semi harmonic
PH - pitch harmonic
h - hammer on
p - pull off
b - bend
br - bendRelease
pb - preBend
pbr - preBendRelease
brb - bendReleaseBend
\
/ - tremolo bar dip
\
 - tremolo bar dive
-/n - tremolo bar Release up
/n\ - tremolo bar inverted dip
/n - tremolo bar return
-\
 - tremolo bar Release down
S - shift slide
~ - vibrato
W - wide vibrato
tr - trill
TP - tremolo picking

Almost there ...

Sign in to get your own page with links to favourite songs and more. You are just one click away...

Login with Facebook Login with Google