Log in

One click and you are in

Login with Facebook Login with Google

Why sign up and log in

Guitar Tabs Explorer
Dio bass tabs for Invisible

Bass tabs

Tuning: E A D G


G|---------------------------------------------------------------|
D|-0-2-----------------------------------------------------------|
A|------------------3--------------------------------------------|
E|-------0-------------------------------------------------------|

G|---------------------------------------------------------------|
D|-0-2-----------------------------------------------------------|
A|------------------3--------------------------------------------|
E|-------0-------------------------------------------------------|

G|---------------------------------------------------------------|
D|-0-2-----------------------------------------------------------|
A|------------------5--------------------------------------------|
E|-------0-------------------------------------------------------|

G|---------------------------------------------------------------|
D|---------------------------------------------------------------|
A|-3----2--7-7---------------------------------------------------|
E|----------------0----------------------------------------------|

G|---------------------------------------------------------------|
D|----------0----------------------------------------------------|
A|---------------------------------------------------------------|
E|-0-------------------------------------------------------------|

G|---------------------------------------------------------------|
D|---------------------------------------------------------------|
A|-3-------------------------------------------------------------|
E|----0-0-3---0-0-5----------------------------------------------|

G|---------------------------------------------------------------|
D|---------------------------------------------------------------|
A|---------------5-----------------------------------------------|
E|-0-0--3--5--3-----0--0---3--0--0-5-----------------------------|

G|---------------------------------------------------------------|
D|-2-------------------------------------------------------------|
A|-----2---------------------------------------------------------|
E|---------0-0-3---0--0--5---------------------------------------|

G|---------------------------------------------------------------|
D|---------------------------------------------------------------|
A|----------------5----------------------------------------------|
E|-0--0--3--5--3-----0--0--3-----0--0--5-------------------------|

G|---------------------------------------------------------------|
D|---------------------------------------------------------------|
A|---------------------------------------------------------------|
E|-0--0--3--5--3---2--0--0--3-----0--0--5------------------------|

G|---------------------------------------------------------------|
D|---------------------------------------------------------------|
A|----------------5----------------------------------------------|
E|-0--0--3--5--3-----0--0--3-----0--0--5-------------------------|

G|---------------------------0------------------------------------|
D|---------------------0-------2----------------------------------|
A|--------2---0---0-2----2---------2---0--------------------------|
E|-0-0-3----------------------------------------------------------|

G|-----0-------------------------0--------------------------------|
D|--2----2-0-----------------0-----2------------------------------|
A|-----------2---0------0-2----2-------2---0----------------------|
E|-------------------0--------------------------------------------|

G|---------------------------------------------------------------|
D|-----------------2---------------------------------------------|
A|---------------------2-----------------------------------------|
E|-0-0-3---0-0-5-------------------------------------------------|

G|---------------------------------------------------------------|
D|---------------------------------------------------------------|
A|---------------------------------------------------------------|
E|-0-0-3---0-0-5---0-0-3--5-3--2---------------------------------|

G|---------------------------------------------------------------|
D|---------------------------------------------------------------|
A|-------------------------2--0----------------------------------|
E|-0-0-3---0-0-5---0-0-3-----------------------------------------|

G|----------0--------------0--------------------------------------|
D|-----0-------2--------2-----2--0--------------------------------|
A|-0-2----2-------2--0-------------2--0---------------------------|
E|---------------------------------------0------------------------|

G|---------0------------------------------------------------------|
D|-----0-----2----------------------------------------------------|
A|-0-2---2------2---0---0-----------------------------------------|
E|--------------------------3---3--1------------------------------|

G|----------0----------------------------------------------------|
D|------0------2-------------------------------------------------|
A|--0-2---2------------------------------------------------------|
E|----------------0----------------------------------------------|

G|---------0-----------------------------------------------------|
D|-----0-----2---------------------------------------------------|
A|-0-2---2--------5----------------------------------------------|
E|---------------------------------------------------------------|

G|---------0-----------------------------------------------------|
D|-----0-----2---------------------------------------------------|
A|-0-2---2--------3----------------------------------------------|
E|---------------------------------------------------------------|

G|--------0-------------------------------------------------------|
D|-----0----2-----------------------------------------------------|
A|-0-2---2--------------------------------------------------------|
E|--------------0-------------------------------------------------|

G|--------0------------------------------------------------------|
D|-----0----2----------------------------------------------------|
A|-0-2---2------5------------------------------------------------|
E|---------------------------------------------------------------|

G|---------0-----------------------------------------------------|
D|-----0-----2---------------------------------------------------|
A|-0-2---2------3------------------------------------------------|
E|---------------------------------------------------------------|

G|-----------0-----------0-------0-------------------------------|
D|-------0-----2---2-0-2---2-0-2---2-0-2-------------------------|
A|--0-2----2-----------------------------------------------------|
E|---------------------------------------------------------------|

G|---------------------------------------------------------------|
D|---------------------------------------------------------------|
A|--------------------------5------------------------------------|
E|-0-0-3--0-0-5--0-0-3--5-3--------------------------------------|

G|---------------------------------------------------------------|
D|---------------2-----------------------------------------------|
A|-------------------2-------------------------------------------|
E|-0-0-3--0-0-5--------------------------------------------------|

G|---------------------------------------------------------------|
D|---------------------------------------------------------------|
A|------------------------------5--------------------------------|
E|-0-0-3--0-0-5--0--0-0-3--5--3----------------------------------|

G|---------------------------------------------------------------|
D|---------------------------------------------------------------|
A|---------------------------------------------------------------|
E|-0-0-3--0-0-5---0-0-3--5-3-2-----------------------------------|

G|---------------------------------------------------------------|
D|-----------------------------5---------------------------------|
A|-0-0-3--0-0-5---0-0-3--5--3------------------------------------|
E|---------------------------------------------------------------|

G|---------------------------------------------------------------|
D|---------------------------------------------------------------|
A|------------------------2--0-----------------------------------|
E|-0-0-3--0-0-5---0-0-3------------------------------------------|

G|---------0------------------------------------------------------|
D|-----0-----2----------------------------------------------------|
A|-0-2---2------2--0----------------------------------------------|
E|---------------------0-0-3--0--0--5-----------------------------|

G|-----------------------0----------------------------------------|
D|-------------------0-----2--------------------------------------|
A|---------------0-2---2------2--0--------------------------------|
E|-0-0-3--0-0-5---------------------------------------------------|

G|---0----------------------0-------------------------------------|
D|-2---2-0--------------0-----2-----------------------------------|
A|---------2--0-----0-2---2------2--0-----------------------------|
E|---------------0------------------------------------------------|

G|---------------------------------------------------------------|
D|---------------------------------------------------------------|
A|---------------------------------------------------------------|
E|0-0-3--0-0--5---0-0-3--0-0--5----------------------------------|

G|--------0--------------0----------------------------------------|
D|-----0----2---------2----2--0-----------------------------------|
A|-0-2---2------2--0------------2--0------------------------------|
E|------------------------------------0---------------------------|

G|---------0------------------------------------------------------|
D|-----0-----2----------------------------------------------------|
A|-0-2---2-------2--0---------------------------------------------|
E|----------------------0-0-3--0-0-5------------------------------|

G|---------------------------------------------------------------|
D|---------------------------------------------------------------|
A|------------5--------------------------------------------------|
E|-0-0-3--5-3----0-0-3--0-0-5------------------------------------|

G|--------------------------------------------------------------|
D|--------------------------------------------------------------|
A|-------x-5--x-5-----------------------------------------------|
E|-3-3-3-----------0-0--3--0-0--5-------------------------------|

G|---------------------------------------------------------------|
D|---------------------------------------------------------------|
A|------------5--------------------------------------------------|
E|-0-0-3--5-3----0-0-3--0-0-5------------------------------------|

G|---------------------------------------------------------------|
D|---------------------------------------------------------------|
A|-------x-5--x-5------------------------------------------------|
E|-3-3-3-----------0-0--3--0-0--5--------------------------------|

G|---------------------------------------------------------------|
D|---------------------------------------------------------------|
A|-------------5-------------------------------------------------|
E|-0-0--3--5-3----0-0-3--0-0-5-----------------------------------|

G|---------------------------------------------------------------|
D|---------------------------------------------------------------|
A|------x-5--x-5-------------------------------------------------|
E|-3-3-3----------0-0--3--0-0--5---------------------------------|

G|---------------------------------------------------------------|
D|---------------------------------------------------------------|
A|------------5--------------------------------------------------|
E|-0-0-3--5-3----0-0-3--0-0--5-----------------------------------|

G|---------------------------------------------------------------|
D|---------------------------------------------------------------|
A|-------x-5-x-5-------------------------------------------------|
E|-3-3-3----------0-0--3--0-0--5---------------------------------|

G|---------------------------------------------------------------|
D|---------------------------------------------------------------|
A|-------------5-------------------------------------------------|
E|-0-0--3--5-3---0-0--3--0-0--5----------------------------------|

G|---------------------------------------------------------------|
D|---------------------------------------------------------------|
A|-------x-5-x-5-------------------------------------------------|
E|-3-3-3---------------------------------------------------------|

Almost there ...

Sign in to get your own page with links to favourite songs and more. You are just one click away...

Login with Facebook Login with Google