Log in

One click and you are in

Login with Facebook Login with Google

Why sign up and log in

Guitar Tabs Explorer
Dio tabs for I could have been a dreamer

Guitar tabs

This is my first tab and i only  have the intro, verse, and chorus.

Intro
--------------------------------------------------------|
--------------------------------------------------------|
--------------------------------------------------------|
-9--9---7--7-----7--7---9--9---9--9---7--7---7---7------|
-7--7---5--5-----5--5---7--7---7--7---5--5---5---5------|
-7--7---5--5-----5--5---7--7---7--7---5--5---5---5------|

Main Riff
--------------------------------------------------------|
--------------------------------------------------------|
--------------------------------------------------------|
-9--9---7--7-----7--7---9--9---9--9---7--7---7--7--5--5-|
-7--7---5--5-----5--5---7--7---7--7---5--5---5--5--3--3-|
-7--7---5--5-----5--5---7--7---7--7---5--5---5--5--3--3-|
Do the riff above twice except the second time at the end instead of doing
5 5 do -----------9----|
3 3    -----------7----|
3 3    -7-10-7-10-7----| on the same strings


Verse
----------------------------------------------------------|
----------------------------------------------------------|
----------------------------------------------------------|
-5--5-5-5-5--5--5--5-5-5-5--5--4--4-4-4-4--4--4--4-4-4-4--| X2
-3--3-3-3-3--3--3--3-3-3-3--3--2--2-2-2-2--2--2--2-2-2-2--|
----------------------------------------------------------|

Main Riff


Verse


Pre Chorus

------------------------|
------------------------|
------------------------|
-4--2--4----------------|
-2--0--2----------------|
------------------------|


Chorus

------------------------------------------------------------------------|
------------------------------------------------------------------------|
------------------------------------------------------------------------|
-9--9-9-9-9--9--9--9-9-9-9--9--7--7-7-7-7--7--7--7-7-7-7--9--9--9-9-9-9-|
-7--7-7-7-7--7--7--7-7-7-7--7--5--5-5-5-5--5--5--5-5-5-5--7--7--7-7-7-7-|
------------------------------------------------------------------------|

Almost there ...

Sign in to get your own page with links to favourite songs and more. You are just one click away...

Login with Facebook Login with Google