Log in

One click and you are in

Login with Facebook Login with Google

Why sign up and log in

Guitar Tabs Explorer
Dio bass tabs for Holy diver

Bass tabs

Intro

G---------------------
D--------------------
A-3-333-333-5-6-----
E---------------------
(1x)

G------------------
D-----------------
A-3-333-33-6-1----
E------------------
(2x)

Then

G--------
D--------
A-3-1-3-
E--------

Play intro twice and on the second time replace the last part with

G---------
D---------
A-3-1---
E------4-


Verse

G------------------------------------------------
D------------------------------------------------
A-3-333ect.---3-333-33-1-111---------------------
E-----------4-------------------4-444-444-444----

G----------------------------------------------
D----------------------------------------------
A-3-333-33-1-111-11-3-333-333-333--------------
E---------------------------------------------

“Gotta get away”

G--------------------
D--------------------
A----------------1--
E-4-444etc.-4-----

Back to intro

Second verse change to

G------------------------------------------------
D-----------------------------------------------
A-3-333etc.-3-333-33-1-111---------------------1
E----------------------------4-444-444-44-4----

“Gotta get away”

G-------------------------
D--------------------------
A--------------------------
E-4-444etc.-5-555etc.-

“Between the velvet lies”

G---------------------
D---------------------
A-33-11--------1---
E---------44-4------

G---------------
D---------------
A-33-11----1-
E-------4~---

Twice, then back to verse

Solo play

G-----------------------------
D------3---------3--------
A-3-5-----5--33----5--6-5
E-----------------------------

G-------------------------------
D------3----------3----------
A-3-5-----5--3-5----5--6-8-
E-------------------------------

G------------------------------
D-------3--------3----------
A-3-5-----5--33----5--6-5-
E-------------------------------

G------------------------------------------
D------------------------------------------
A--------------------------------------6-1-
E-4-444etc.-6-666etc.-4-444etc.-6etc.------

G------
D------
A-3-2-
E------

Keep repeating the verse till the end of the song

Almost there ...

Sign in to get your own page with links to favourite songs and more. You are just one click away...

Login with Facebook Login with Google