Log in

One click and you are in

Login with Facebook Login with Google

Why sign up and log in

Guitar Tabs Explorer
Dio tabs for Challis

Guitar tabs

artist: DIO
  song: CHALLIS
  album: MAGICA
  tabbed by SKID

listen to the song for the rhythm. the bar lines are only a guide line

  This is just the intro/chorus riff

  slide           slide                            slide
  |---------------------|---------------------------|
  |-3/5--5--5--5\----|---------------------------|
  |-2/4--4--4--4\----|---------------------------|
  |---------------------|---------------------------|
  |---------------------|--2--(2)--4--(2)--4/5--|
  |---------------------|--0---0---2---0---2/3--|

  slide           slide
  |---------------------|------------------------|
  |-3/5--5--5--5\----|------------------------|
  |-2/4--4--4--4\----|------------------------|
  |---------------------|--2---------------------|
  |---------------------|--0--(5)--(4)--2------|
  |---------------------|-------3----2---0------|

gtr2 sometimes plays higher parts on bars 2 and 4 of the riff

  Fill 1 (w/ bar 2)
  |-------------------------|
  |-------------------------|
  |-9---9-11-9-11-12---|
  |-------------------------|
  |-------------------------|
  |-------------------------|

  Fill 2 (w/ bar 4)
  |------------------|
  |------------------|
  |-2---------------|
  |----5--4--2-----|
  |------------------|
  |------------------|

these fills chane throughout the song and i'm not 100% sure these are right


If there are any mistakes just fix em

Almost there ...

Sign in to get your own page with links to favourite songs and more. You are just one click away...

Login with Facebook Login with Google