Log in

One click and you are in

Login with Facebook Login with Google

Why sign up and log in

Guitar Tabs Explorer
Dio tabs for Caught in the middle

Guitar tabs with lyrics

Dio - Caught in the Middle
from Holy Diver
letostak@ix.netcom.com (Judy Letostak)
The Music Shop BBS (619)423-4970

I didn't get the whole solo, but there's most of it.  It was a short solo.
Any corrections questions, comments welcome.


Intro/Chorus
2x====================================                   2nd time============
-----------------------------------------|-------------|---------------------
-----------------------------------------|-------------|---------------------
-----------------------------------------|-------------|---------------------
---6----9----4----9----2----6---4----4---|----6--6\----|----2--2-------------
---4----7----2----7----0----4---2----2---|----4--4\----|----0--0-------------
-----------------------------------------|-------------|---------------------


Verse

-----------------------------------------------------------------------------
-----------------------------------------------------------------------------
-----------------------------------------------------------------------------
--2------------6--4--2----2----------------------------------2----6-4-2----6-
--0------------4--2--0----0-----2---7--5--4--2---------------0----4-2-0----4-
--------------------------------0---0--0--0--0------3b1/4--------------------


Bridge
A chord diagramF#F#      A chord diagramG#G#      A chord diagramA augmentedA   A chord diagramA augmentedA
-----------------------------------------------------------------------------
-----------------------------------------------------------------------------
-----------------------------------------------------------------------------
-----------------------------------------------------------------------------
-----------------------------------------------------------------------------
-2-------4-------5---5-------------------------------------------------------


Chorus

-----------------------------------------------------------------------------
-----------------------------------------------------------------------------
-----------------------------------------------------------------------------
---6---9--4---9----2-----------------2--2------------------------------------
---4---7--2---7----0-----------------0--0------------------------------------
----------------------2-2--5-5--2-2------------------------------------------


Verse

Bridge (2x)

Chorus

Part of the Lead

--12~---11h12p11~-------14~--12h14p12~----/16--14--12------------------------
---------------------------------------------------------- ? ? ? ? ?---------
-----------------------------------------------------------------------------
-----------------------------------------------------------------------------
-----------------------------------------------------------------------------
-----------------------------------------------------------------------------


--12---11h12p11------14--12h14p12-----16--14--12--16--14--16b-1-1/2----------
-----------------------------------------------------------------------------
-----------------------------------------------------------------------------
-----------------------------------------------------------------------------
-----------------------------------------------------------------------------
-----------------------------------------------------------------------------


Verse

Bridge (1x)

Chorus
End

The Music Shop BBS (619)423-4970  (San Diego, CA  USA)
Over 6,000 Guitar Tabs, pictures, construction docs, lessons, interviews,
Over 700 Bass Tabs, sound files, lyrics, programs.  If you have any new tab
looking for new tab, or music related ansi screens for the BBS.  If you have
them, please send them my way.

h = hammeron
p = pulloff
~ = vibrato
b = bend
/\ = Slide
* = Artificial Harmonic
x = ghost note
tr = trill

Other versions of Caught In The Middle

Caught in The MiddleChords

Almost there ...

Sign in to get your own page with links to favourite songs and more. You are just one click away...

Login with Facebook Login with Google