Log in

One click and you are in

Login with Facebook Login with Google

Why sign up and log in

Guitar Tabs Explorer
Dinosaur Jr. tabs for Thumb

Guitar tabs with lyrics

thumb (J. Mascis)
        from "Green Mind", the Japan Import "Quest" and Whatevers Cool
with me


Chorus:
 There  never really is a good time........|
E-------------X--X----------------------|
B------1--1--X--X--2--------2-----3----| Strum last chord for a few beats
G------0--0--X--X--3-----3----3---0----| Then at the end of every verse
end it
D------2--0--X--X--0----0---------0----| on a A chord diagramC majorC instead.
A------3--2--X--X--0--0-----------2----|
E-------------X--X----------------------|

Steppin' out I tried to fix it.......
E----------------------------|
B---2---2---2-----1--1------|
G---3---3---3-----0--0------|
D---0---0---0-----2--2------|
A---0---0---0-----3--3------|
E----------------------------|



Pretty simple song once you get it down. The order in which you play this
song varies with each album but you should be about to pick it out and go
with it. If you need any more infomation E-mail me. And if you are
interested in The Dinosaur Jr. Online fan Club on AOL please email me for
infomation. Thanks T.

Almost there ...

Sign in to get your own page with links to favourite songs and more. You are just one click away...

Login with Facebook Login with Google